Andy Lau - Stupid Kid Chords & Tabs

 

Stupid Kid Chords & Tabs

Andy Lau Chords & Tabs

Version: 1 Type: Tab 0 ratings
1 star 2 stars 3 stars 4 stars 5 stars
comments

Stupid Kid Tab

   
Artist : Andy Lau
Title : Stupid kid
Contact info. : owen109@yahoo.com

INTRO
         Am           D              Am G
   |-----12~-----9/10-9^--------------------------------|
   |-5/12--------------10^-------5-5/12--------------10-|
   |---------------------9~------------------11/12\11---|
   |----------------------------------------------------|
   |----------------------------------------------------|
   |----------------------------------------------------|
   Am       D
   |-------------------------------------------|
   |--------8^-----------10/12-10~-8-10/12-10~-|
   |----7-9---9~------7-9-----------9----------|
   |-7/9-----------7/9-------------------------|
   |-------------------------------------------|
   |-------------------------------------------|
   Am              G
   |--------------------------------|
   |-------8^-------8^-10~-10-8-7~--|
   |----7-9--9~--7/9----------------|
   |-7/9----------------------------|
   |--------------------------------|
   |--------------------------------|
[ Tab from: http://www.guitartabs.cc/tabs/a/andy_lau/stupid_kid_tab.html ]
Solo 1:
   |---------------7-9/10-9^--7-9/10-9^----------------------|
   |--------8^--------------------------10-8-10p8------------|
   |----7-9---9~---------------------------------11p9-7h9-9~-|
   |-7/9---9-------------------------------------------------|
   |---------------------------------------------------------|
   |---------------------------------------------------------|
              D
   |-15-15-15-17-15--17/18\17-----------|
   |------------------------------------|
   |------------------------------------|
   |------------------------------------|
   |------------------------------------|
   |------------------------------------|
         Am      G  F                          Am
   |-----12-10^-10^--10/12--------------------------|
   |-5/12-----------------12-12-12-12-12-12---------|
   |------------------------------12----12--12-12/0-|
   |------------------------------------------------|
   |------------------------------------------------|
   |------------------------------------------------|
                 D      Am
   |-------------------------------------|
   |-------------------------------------|
   |-------------------------------------|
   |-----------------12-12/14~---12/14~--|
   |-10/12-12-12-12----------------------|
   |---------------12--------------------|

solo 2:
       Am               D            Am
   |-----------------------7-10-9^--7--7/5-7--------|
   |--------8^---11^-10^-------------10-----8-8~----|
   |----7-9--- 9^-----------------------------------|
   |-7/9--------------------------------------------|
   |------------------------------------------------|
   |------------------------------------------------|
        D
   |--6-5/3--3-3/5-------|
   |-8------------5-5~---|
   |---------------------|
   |---------------------|
   |---------------------|
   |---------------------|

   Am       D
   |-------------------------------------------|
   |--------8^-----------10/12-10~-8-10/12-10~-|
   |----7-9---9~------7-9-----------9----------|
   |-7/9-----------7/9-------------------------|
   |-------------------------------------------|
   |-------------------------------------------|
   Am              G
   |--------------------------------|
   |-------8^-------8^-10~-10-8-7~--|
   |----7-9--9~--7/9----------------|
   |-7/9----------------------------|
   |--------------------------------|
   |--------------------------------|

for more information, please visit : www.guitaryou.com
thankx
Comments