Andy Fairweather Low - Tears In Heaven Chords & Tabs

 

Tears In Heaven Chords & Tabs

Andy Fairweather Low Chords & Tabs

Version: 1 Type: Tab 0 ratings
1 star 2 stars 3 stars 4 stars 5 stars
comments

Tears In Heaven Tab

Tears In Heaven

2nd Guitar
Andy Fairweather-Low

Transcribed by Sean Sullivan (themindsnexus@hotmail.com)

Well, here it is, the correct, entire transcription of Andy's part in Tears In Heaven from Unplugged. 
Many thanks to Antoine de Peyret and -www.12bar.de-. 

During Andy's solo EC also has a short solo part, for a transcription visit
-www.12bar.de/unplugged.htm- or e-mail me. 

Comments very welcome! Preferrably through email

                                                                               
E||------------------|------------------|------------------|------------------|
B||------------------|------------------|------------------|------------------|
G||----EC's-guitar---|------------------|------------------|------------------|
D||--------Intro-----|------------------|------------------|------------------|
A||------------------|------------------|------------------|------------------|
E||------------------|------------------|------------------|------------------|


                           1st Verse  "Would you know..."               
------------------||----------------------------|------------------------|
------------------||---------2h3h2----5------2--|------7--5--7h-5--2--5--|
------------------||*-----2--------2--4------2--|------7--5--6h-4--2--4--|
------------------||*---------------------------|------------------------|
------------------||---0------------------------|------------------------|
------------------||------------------4------2--|------------------------|


                                                    
-------0----------0-----|--------------------------|
--3----3----2h-3--------|--------------------------|
--2------------------1--|--1----1------2------4----|
------------------------|--------------------------|
------------------------|----------2h4----4h5------|
------------------------|--------------------------|


                                                                                
----------------------------|-------2--4--5h-4--2--0--|------------------0-----|
--------2h3h2----5-------2--|----2--------------------|--3----3----2h-3--------|
-----2--------2--4-------2--|----2--2--4--6h-4--2--1--|-------2-------------1--|
----------------------------|-------------------------|--4---------------------|
--0-------------------------|-------------------------|------------------------|
-----------------4----4-----|----2--------------------|------------------------|


                            Chorus "I must be strong..."               
---------------------------|--------2----------2-----|
---------------------------|-----2----------2-----2--|
--1-----1------2------4----|--------2----------2-----|
---------------------------|--4--------4-------------|
-----------2h4----4h5------|-------------------------|
-----0---------------------|-------------------------|


                                                                              
--1-----1-----------1-----|--------0-----------0-----|------------------2----|
-----2-----2--2--2-----2--|-----0-----0-----0-----0--|-------------0----2----|
--------------------1-----|--------0-----------0-----|--3----3-----1----3----|
--3-----1-----3-----------|--2-----------2-----------|--2----2---------------|
--------------------------|--------------------------|-----------------------|
--------------------------|--------------------------|--2-------2------------|


                                                                             
--------------------------|-------------------|-----------------------------|
--------3-----------3-----|----3--------------|--------2h3h2----5-----5--2--|
-----------2--------------|----2--------------|-----2--------2--4-----4--2--|
-----4-----------4--------|-------------------|-----------------------------|
--2-----------2-----------|-------------------|--0--------------------------|
-----------------------0--|-------------------|-----------------4--4-----2--|


                                                                            
------------------------|--------------------|-----------------------------|
------7--5--7h-5--2--5--|--3------------3----|--2--------------2h3h2-------|
------7--5--6h-4--2--4--|--2------------1----|--2----------2h4-------4h2---|
------------------------|--------------------|---------2h4---------------4-|
------------------------|--------------------|-----------------------------|
------------------------|--2-----------------|-----------------------------|


   2nd Verse "Would you hold my hand..."                             
---------------------------|------------------------|-------0----------0-----|
--------2h3h2----5------2--|------7--5--7h-5--2--5--|--3----3----2h-3--------|
-----2--------2--4------2--|------7--5--6h-4--2--4--|--2------------------1--|
--2------------------------|------------------------|------------------------|
---------------------------|------------------------|------------------------|
-----------------4------2--|------------------------|------------------------|


                                                        
--------------------------|----------------------------|
--------------------------|--------2h3h2----5-------2--|
--1----1------2------4----|-----2--------2--4-------2--|
--------------------------|----------------------------|
----------2h4----4h5------|--0-------------------------|
--------------------------|-----------------4----4-----|


                                                                               
-------2--4--5h-4--2--0--|------------------0-----|---------------------------|
----2--------------------|--3----3----2h-3--------|---------------------------|
----2--2--4--6h-4--2--1--|-------2-------------1--|--1-----1------2------4----|
-------------------------|--4---------------------|---------------------------|
-------------------------|------------------------|-----------2h4----4h5------|
----2--------------------|------------------------|-----0---------------------|


 2nd Chorus "I'll find my way..."                                    
--------2----------2-----|--1-----1-----------1-----|--------0-----------0-----|
-----2----------2-----2--|-----2-----2--2--2-----2--|-----0-----0-----0-----0--|
--------2----------2-----|--------------------1-----|--------0-----------0-----|
--4--------4-------------|--3-----1-----3-----------|--2-----------2-----------|
-------------------------|--------------------------|--------------------------|
-------------------------|--------------------------|--------------------------|


                                                                          
------------------------|--------------------------|---------------------|
--------2-----0----2----|--------3-----------3-----|----3-------3--------|
-----3-----3--1----3----|-----------2--------------|----2-------2--------|
------------------------|-----4-----------4--------|---------------------|
------------------------|--2-----------2-----------|---------------------|
--2---------------------|-----------------------0--|---------0-----------|


                                                                           
----------------------------|------7--5--------------|--------------------|
-------2h3h2----5-----5--2--|------7--5--7h-5--2--5--|--3------------3----|
--2----------2--4-----4--2--|------------6h-4--2--4--|--2------------1----|
----------------------------|------------------------|--------------------|
----------------------------|------------------------|--------------------|
----------------4--4-----2--|------------------------|--------------------|

[ Tab from: http://www.guitartabs.cc/tabs/a/andy_fairweather_low/tears_in_heaven_tab.html ]
                             Bridge "Time can bring you down..."     
---------------------------||-------------------3--|-------0--------------|
--------2-----------2------||-------------------0--|-------1----3----3----|
-----------2---------------||*---------------------|-----------------2----|
-----2-----------2---------||*---------------------|----------------------|
--0-----------0--------0h2-||---3--------2---------|--0-------------------|
---------------------------||----------------------|----------------------|


                                           repeat             
------------------------|----------------------||------|
-------3--3-----3--3----|--3--------3----3-----||------|
-------0--4-----2--2----|--0--------2----0----*||------|
------------------------|---------------------*||------|
------------------------|----------------------||------|
--3----------2----------|----------------------||------|


 Solo...
                                                                             
------9h10h9-------14--12--9~-|------------------|------10--10--9h-7--5--9--|
-------------10---------------|------------------|--------------------------|
------------------------------|------------------|------11------9h-7--6--9--|
------------------------------|------------------|--------------------------|
------------------------------|------------------|--------------------------|
------------------------------|------------------|--------------------------|


                                                                       
----7------7~-------|------9h10h9-----14--12----9~-|------------------|
--------------------|-------------10---------------|------------------|
----7------7~-------|------------------------------|------------------|
--------------------|------------------------------|------------------|
--------------------|------------------------------|------------------|
--------------------|------------------------------|------------------|


                                                   3rd Chorus "I must be strong..." 
------10--10--9h-7--5--9--|----7------7~-------|--------2-----------2-----|
--------------------------|--------------------|-----2-----2-----2-----2--|
------11------9h-7--6--9--|----7------7~-------|--------------------------|
--------------------------|--------------------|--4-----------4-----------|
--------------------------|--------------------|--------------------------|
--------------------------|--------------------|--------------------------|


                                                                         
--------1---------------|--------0---------0----|-----------------------|
-----2------------------|-----0------------0----|--------2----0----2----|
--------1-------1--1----|-----------------------|--------3----1----3----|
--3----------3----------|--2--------2-----------|-----2-----------------|
------------------------|-----------------------|-----------------------|
------------------------|-----------------------|--2--------------------|


                                                                            
------------------------|---------------------|----------------------------|
--------3----------3----|----3----------------|-------2h3h2----5-----5--2--|
------------------------|----2----------------|--2----------2--4-----4--2--|
-----4----------4-------|---------------------|----------------------------|
--2----------2----------|---------------------|----------------------------|
------------------------|-----------------0h2-|----------------4--4-----2--|


                                                                            
------7--5--------------|--------------------|-----------------------------|
------7--5--7h-5--2--5--|--3------------3----|--2--------------2h3h2-------|
------------6h-4--2--4--|--2------------1----|--2----------2h4-------4h2---|
------------------------|--------------------|---------2h4---------------4-|
------------------------|--------------------|-----------------------------|
------------------------|--------------------|-----------------------------|


 Repeat of 1st verse...                                 
----------------------|------2--4--5h-4--2--0--|------------------0-----|
-------2------5----2--|------------------------|--3----3----2h-3--------|
-------2------4----2--|------2--4--6h-4--2--1--|---------------------1--|
--2-------------------|------------------------|--4----2----------------|
----------------------|------------------------|------------------------|
----------------------|------------------------|------------------------|


                                                                                
--------------------------|---------------------------|------7--5--------------|
--------------------------|--------2h3h2----5------2--|------7--5--7h-5--2--5--|
-------1------2------4----|-----2--------2--4------2--|------------6h-4--2--4--|
--------------------------|---------------------------|------------------------|
----------2h4----4-5------|--0------------------------|------------------------|
----0---------------------|-----------------4------2--|------------------------|


                                                    Final Chorus  
-----------------0-----|-------------------------|--------2-----------2-----|
--3--------2h-3--------|-------------------------|-----2-----2-----2-----2--|
--2-----------------1--|------1------2------4----|--------------------------|
-----------------------|-------------------------|--4-----------4-----------|
-----------------------|---------2h4----4h5------|--------------------------|
-----------------------|-------------------------|--------------------------|


                                                                         
--------1---------------|--------0---------0----|-----------------------|
-----2------------------|-----0------------0----|--------2----0----2----|
--------1-------1--1----|-----------------------|--------3----1----3----|
--3----------3----------|--2--------2-----------|-----2-----------------|
------------------------|-----------------------|-----------------------|
------------------------|-----------------------|--2--------------------|


                                                                            
------------------------|---------------------|----------------------------|
--------3----------3----|----3----------------|--------2h3h2----5-------2--|
------------------------|----2----------------|-----2--------2--4-------2--|
-----4----------4-------|---------------------|----------------------------|
--2----------2----------|---------------------|--0-------------------------|
------------------------|-----------------0h2-|-----------------4----4--2--|


                        Repeat of last line.. "I know i don't belong..."  
---------------------|--------------------------|-----------------------|
------2---------2----|--------3-----------3-----|----3-------3----------|
------2---------2----|-----------2--------------|----2-------2----------|
---------------------|-----4-----------4--------|-----------------------|
---------------------|--2-----------2-----------|-----------------------|
-------------0-------|-----------------------0--|---------0---------0h2-|


                                                                          
---------------------------|------7--5--------------|--------------------|
-------2h3h2----5-------2--|------7--5--7h-5--2--5--|--3------------3----|
--2----------2--4-------2--|------------6h-4--2--4--|--2------------1----|
---------------------------|------------------------|--------------------|
---------------------------|------------------------|--------------------|
----------------4----4--2--|------------------------|--------------------|


                     
-------------------||
--2----------------||
--2----------------||
-------------------||
-------------------||
-------------------||
Comments