Andrew W K - She Is Beautiful Chords & Tabs

 

She Is Beautiful Chords & Tabs

Andrew W K Chords & Tabs

Version: 1 Type: Tab 0 ratings
1 star 2 stars 3 stars 4 stars 5 stars
comments

She Is Beautiful Tab

   
Drop D tuning

*=palm mute

intro
e--------------------------------------------
B--------------------------------------------              
G-----------------7--------------7---9-7--7-9
D-5-55555550--77777--5-55555550--7-7-7-7--7-7 x2
A-5-55555550--77775--5-55555550--5-7-7-5--5-7
D-5-55555550--7777---5-55555550----7---------
    ******             ******

e------------------------------------------------
B------------------------------------------------
G------------------7-7---------------7---9-7--7-9
D-5-5555555000777777-7--5-5555555000-7-7-7-7--7-7 x2
A-5-5555555000777775-5--5-5555555000-5-7-7-5--5-7
D-5-555555500077777-----5-5555555000---7---------
    ******  **            ******  **
pre-verse
e------------------------------
B------------------------------
G-7----------------------------
D-7-00000000000000000000000000-
A-5-00000000000000000000000000-
D---00000000000000000000000000-
    ************* slowly ease off the palm mute 

verse "I never knew girls existed like you...."
e------------------------------------------------
B------------------------------------------------
G-6/7-6/7-6/7-6/7------------9-11-11-11-11-7---7-
D-6/7-6/7-6/7-6/7-7/5555/777-9-11-11-11-11-7-7-7-
A-4/5-4/5-4/5-4/5-7/5555/777-7-9--9--9--9--5-7-5-
D-----------------7/5555/777-----------------7---
                     **   **
[ Tab from: http://www.guitartabs.cc/tabs/a/andrew_w_k/she_is_beautiful_tab.html ]
pre-chorus "the girls too young she wont need anything..."
e------------------------------------------
B------------------------------------------
G---------------6666-7-7-7-77---77----77---
D-5-5-5-55-7777-6666-7-7-7-77-7-77-77-77-7- x2
A-5-5-5-55-7777-4444-5-5-5-55-7-55-77-55-7-
D-5-5-5-55-7777---------------7----77----7-

chorus "she is beautiful, she is beautiful"
e----------------------------------------------
B----------------------------------------------
G---------------------7----------------------7-
D-5-5-4-4-2420--7-5-7-7--5-5-3-3-2320--7-5-7-7-
A-5-5-4-4-2420--7-5-7-5--5-5-3-3-2320--7-5-7-5-
D-5-5-4-4-2420--7-5-7----5-5-3-3-2320--7-5-7---

bridge "i know i got nothing to lose...."
e---------------------------------------------------
B---------------------------------------------------
G-7-7777777777777777--------------------------------
D-7-777777777777777755555555555555557777777777777777
A-5-555555555555555555555555555555557777777777777777
D-------------------55555555555555557777777777777777

e------------------
B------------------
G-777777777777-----
D-777777777777-5-7- x2
A-555555555555-5-7-
D--------------5-7-

thats basically it. sorry but i havent tabbed the proper intro. its to damn hard, and for 
all the dumbasses that are goin to make bad comments about my tab can get screwed.
Comments