Andrew W K - Party Hard Chords & Tabs

 

Party Hard Chords & Tabs

Andrew W K Chords & Tabs

Version: 6 Type: Tab 0 ratings
1 star 2 stars 3 stars 4 stars 5 stars
comments

Party Hard Tab

Band: Andrew W.K.
Album: I Get Wet
Song: Party Hard
Year: 2002
Tuning: Standard
Tab by: tractorbeam16
e-mail: squirrelyboy16@comcast.net


Intro:
E----------------------------------------]
B----------------------------------------]
G----------------------------------------]--X1
D---222222222222222222222222222222222222-]                
A---222222222222222222222222222222222222-]                
E---000000000000000000000000000000000000-]                
                                                          
Intro Lead:
E-----------------------------------------------2240-]
B------------------4455------------------------------]
G---1----2----4-----------------1----2----4----------]--X1
D-----2----2----2-----------------2----2----2--------]
A----------------------------------------------------]
E----------------------------------------------------]


Verse:
E-----------------------------------]
B-----------------------------------]
G---------4-222-----------6-4444-89-]----]
D---22222-4-222-666-44444-6-4444-89-]    ]
A---22222-2-000-666-44444-4-2222-67-]    ]
E---00000-------444-22222-----------]    ]--X2  
                                         ] 
E---------------------------------]      ]
B---------------------------------]      ]
G---------4-222-----------6-44-89-]------]
D---22222-4-222-666-44444-6-44-89-]
A---22222-2-000-666-44444-4-22-67-]
E---00000-------444-22222---------]

[ Tab from: http://www.guitartabs.cc/tabs/a/andrew_w_k/party_hard_tab_ver_6.html ]
Verse #2:
E----------------------------]
B----------------------------]
G----------------------------]-----------------]
D----------------------------]                 ]
A----------------------------]                 ]
E---12-0-12-10-0-10-9-0-9-0--]                 ]
                                               ]
E----------------------------]                 ]
B----------------------------]                 ]
G----------------------------]-----------------]--X1
D----------------------------]                 ]
A----------------------------]                 ]
E---10-0-10-9-0-9-8-0-12-0---]                 ]
                                               ]
E-----------------------------------------]    ]
B-----------------------------------------]    ]
G-------------------------------------7-7-]----]
D----------------------------9999-999-7-7-]
A----------------------------9999-999-5-9-]
E---8-0-8-7-0-7-6-0-5-0------7777-777-----]


Pre-Chorus:
E------------------------------------]
B------------------------------333---]
G----------2222222---------222-222---]------]
D--2222222-2222222-2222222-222-000---]      ]
A--2222222-0000000-2222222-000-------]      ]
E--0000000---------0000000-----------]      ]
                                            ]--X1
E----------------------------------]        ]
B-------------------------------5--]        ]
G----------2222222---------22-4-4--]--------]
D--2222222-2222222-2222222-22-4-2--]
A--2222222-0000000-2222222-00-2----]
E--0000000---------0000000---------]


Chorus:
E-----------------------------------]
B--------------------------------5--]
G------222-----222-----222-444-444--]----]
D--222-222-222-222-222-222-444-442--]    ]
A--222-000-222-000-222-000-222-22---]    ]
E--000-----000-----000--------------]    ]
                                         ]--X1
E----------------------------------]     ]
B-------------------------------5--]     ]
G------222-----222-----222-22-4-4--]-----]
D--222-222-222-222-222-222-22-4-2--]
A--222-000-222-000-222-000-00-2----]
E--000-----000-----000-------------]



Order of the song:

Intro/Intro Lead
Verse
Verse #2
Pre-Chorus
Chorus
Intro/Intro Lead
Verse
Verse #2
Pre-Chorus
Chorus
Chorus



This is my first tab, so feel free to e-mail me a question or comment.
Comments