Andrew W K - Party Hard Chords & Tabs

 

Party Hard Chords & Tabs

Andrew W K Chords & Tabs

Version: 3 Type: Bass Tab 0 ratings
1 star 2 stars 3 stars 4 stars 5 stars
comments

Party Hard Bass Tab

   
-------------------------------------------------------------------------------
			     PARTY HARD - Andrew WK
-------------------------------------------------------------------------------

Tabbed By : Adrian G.
e-mail: osiris_blind@hotmail.com

Tuning: Standard (EADG)

I'm pretty sure this is the right way to play it. It's the way my band plays it.

Intro:
G|-------------------------------------------------------------------------|
D|-------------------------------------------------------------------------|
A|-------------------------------------------------------------------------|
E|-00000000-00000000-00000000-00000000-00000000-00000000-00000000-00000000-|

Then when the guitar starts doing that "intro" to the verse...
G|---------------------------------------------------------------------------|
D|---------------------------------------------------------------------------|
A|----------------------------6-7-7----------------------------9-11-7---7\0--|
E|-00000000-00000000-00000000-------00000000-00000000-00000000---------------|

Then pause and come in after the drums.
Verse:
G|---------------------------------|
D|-----------------------------111-|   x4
A|-------2-000-----------4-222-----|
E|-00000-------444-22222-----------|

G|-------------------------------------------------------------------------|
D|-------------------------------------------------------------------------|
A|-777-5-55-3-33------555-3-33-2-22------333-2-22-0-00------000-2-222-2-67-|
E|---------------0-00---------------0-00---------------0-00----------------|
[ Tab from: http://www.guitartabs.cc/tabs/a/andrew_w_k/party_hard_btab_ver_3.html ]
Chorus:
G|---------------------------------------------------------------------------|
D|---------------------------------------------------------------------------|
A|-----------------------------------5-------------------------------------7-|
E|-0-000000-5-55-4h5-5-0-000000-5-55---5-0-000000-5-55-4h5-5-0-000000-7-77---|

G|---------------------------------|
D|---------------------------------| x2
A|-------------------------------7-|
E|-000-005-000-005-000-005-007-77--|



Then back to when the guitar starts doing that "intro" to the verse...
G|---------------------------------------------------------------------------|
D|---------------------------------------------------------------------------|
A|----------------------------6-7-7----------------------------9-11-7---7\0--|
E|-00000000-00000000-00000000-------00000000-00000000-00000000---------------|

Then pause and come in after the drums.
Verse:
G|---------------------------------|
D|-----------------------------111-|   x4
A|-------2-000-----------4-222-----|
E|-00000-------444-22222-----------|

G|-------------------------------------------------------------------------|
D|-------------------------------------------------------------------------|
A|-777-5-55-3-33------555-3-33-2-22------333-2-22-0-00------000-2-222-2-67-|
E|---------------0-00---------------0-00---------------0-00----------------|

Chorus:
G|---------------------------------------------------------------------------|
D|---------------------------------------------------------------------------|
A|-----------------------------------5-------------------------------------7-|
E|-0-000000-5-55-4h5-5-0-000000-5-55---5-0-000000-5-55-4h5-5-0-000000-7-77---|

G|---------------------------------|
D|---------------------------------| x4
A|-------------------------------7-|
E|-000-005-000-005-000-005-007-77--|

The last note being E.

G|---|
D|---|
A|-7-|
E|---|

| \  slide down
| h  hammer-on

===============================================================================
Comments