Andrew Lloyd Webber - Phantom Of The Opera Chords & Tabs

 

Phantom Of The Opera Chords & Tabs

Andrew Lloyd Webber Chords & Tabs

Version: 1 Type: Tab 0 ratings
1 star 2 stars 3 stars 4 stars 5 stars
comments

Phantom Of The Opera Tab

Song: Phantom of the Opera
Standard tuning (EADGBe)

This is the main part of the song, and is repeated with every verse.  You have to figure 
the timing on your own, but it's really easy if you know the song.
[ Tab from: http://www.guitartabs.cc/tabs/a/andrew_lloyd_webber/phantom_of_the_opera_tab.html ]
e --------------------------|
B --------------------------|
G --------------------------|    x2
D --0-----------------------|
A 0---0-3-1-1-----3---0-----|
E --------------3---3-------|


e ---------------------------------------------------|
B ---------------1--------3-1------------------------|
G ------2-0-0--0---0-2--2-----3-2-0------------------|
D --0-3-----------------------------3-2-0------------|
A 0---------------------------------------4--1-1-0-0-|
E ---------------------------------------------------|

Have fun with it!
Comments