Andrew J Bodnar - Eyes To Be Opened Chords & Tabs

 

Eyes To Be Opened Chords & Tabs

Andrew J Bodnar Chords & Tabs

Version: 1 Type: Chords 0 ratings
1 star 2 stars 3 stars 4 stars 5 stars
comments

Eyes To Be Opened Chords

   
This song toke me a lot of time to make lyric whise there from the heart so please 
e-mail me your thoughts and please dont steal it.  Enjoy  mason4ty@yahoo.com


Intro
Acoustic
e----------------------------------------------------------
b-1-----1-----1-----0-----0-----0-----3-----3-----3--------
g---2-----2-----2-----1-----1-----1-----0-----0-----0------
d-----2-----2-----2-----2-----2-----2-----2-----2-----2----
a-0-----------------2-----------------3--------------------
e----------------------------------------------------------

e-------------------------3----------------
b-3-----3-----3-----------3----------------
g---0-----0-----0---------0----------------   2x's
d-----0-----0-----0-------0----------------
a-2-----------------------2----------------
e-------------------------3----------------

[ Tab from: http://www.guitartabs.cc/tabs/a/andrew_j_bodnar/eyes_to_be_opened_crd.html ]
Am                    E
How was I suppost to know?
         G7 (i think)       G   
That my life was gonna change.
Am                          E  
Freinds would never be the same.
G7                                    G
I;m scared inside and my eyes arn't open.

(chorus)
C
Can't see the way.
D
Made a big mistake.
G
I just want to get away
   A            E
with eyes wide open.

Am                         E
Don't know what I might become.
 G7                       G
Scared of what i might become.
Am                           E                      
I close my eyes and begin to pray. 
G7                         G              A           E  
Pray to make this blind leap of faith with eyes wide open.

(chorus same)


  Chords Used
   Am  E   G7  G  A
e  0   0   3   3  0
g  1   0   3   3  2 
b  2   1   0   0  2
d  2   2   2   0  2
a  0   2   3   2  0
e  x   0   x   3  x


Let A ring out and thats it.  Its a good acoustic/campe fire song.
Andy
Comments