Andrew Hobbs - Flamenco Chords & Tabs

 

Flamenco Chords & Tabs

Andrew Hobbs Chords & Tabs

Version: 1 Type: Tab 1 rating
1 star 2 stars 3 stars 4 stars 5 stars
comments

Flamenco Tab

                                Hi people hope you like my riff!!!
                       To play it strum like this….. (Except for the Intro and Ending just pluck)……
              Down, flail (strum down 1 finger follows the other) , Up, Down, Up, Down X2 then strum down, down, down.
________________________________________________________________________________________________________________________

    Intro: E------------------------------------
           A------------------------------------
           D------------------------------------
           G------------1--2--------------------
           B---0--------------0---1--2----------
           E------0--0--------------------0-----

[ Tab from: http://www.guitartabs.cc/tabs/a/andrew_hobbs/flamenco_tab.html ]
     Main: E—0-0-0-0-0-0-----0-0-0-0-0---0---0---0------
           A—2-2-2-2-2-2-----3-3-3-3-3---4---3---2------
           D—2-2-2-2-2-2-----3-3-3-3-3---4---3---2------
           G—1-1-1-1-1-1-----2-2-2-2-2---3---2---1------     REPEAT 5X - or however many you want!
           B—0-0-0-0-0-0-----0-0-0-0-0---0---0---0------
           E—0-0-0-0-0-0-----0-0-0-0-0---0---0---0------

   Ending: E-------------------------------------------------------
           A-------------------------------------------------------
           D----------------------------------------------3---2----
           G-----------------------1---2--------2---0--------------                                
           B---0---1------3---0-----------0------------------------
           E-----------0-------------------------------------------


                                              By Dboyone
Comments