Andress Tuck - Man In The Mirror (acoustic Instrumental) Chords & Tabs

 

Man In The Mirror (acoustic Instrumental) Chords & Tabs

Andress Tuck Chords & Tabs

Version: 2 Type: Tab 0 ratings
1 star 2 stars 3 stars 4 stars 5 stars
comments

Man In The Mirror (acoustic Instrumental) Tab

   
                                   MAN IN THE MIRROR by TUCK ANDRESS

Guitar transcription by Nathan Gilera Hayag, RRT

Comments, suggestions, corrections & violent reactions...
E-mail me at nathanhayag@gmail.com

STANDARD TUNING (E A D G B E)

LEGEND :
NH - Natural Harmonics
*  - a percussive 'click' with right-hand fingernails after chord is played
~~ - a Tuck Andress-type strum with the (*) technique... hard to explain
\\ - vibrato
v  - a quick upstroke
^  - a quick downstroke with right-hand fingernails to get a percussive sound
/ - slide to
\ - slide from
h - hammer-on
p - pull-off

INTRO :
 NH                                                                             NH
-----10------10-----10--------10--------10------------------10--12--10------10---------------------
-12------10------8-------------------8------8-----8-----10--------------10------12-----------------
-12------11------9-----11--11-----9------------9-----9--------------------------12-----------------
-----------------------12--12----------------------------------------------------------------------
---------------------------------------------------------------------------------------------------
---------------------------------------------------------------------------------------------------

VERSE 1 :
------------------------------------------0--------------------------------------------------------
-0-----------0----0-----------0--------3-----3--------3--0--1/3\2/3--1-----0-----0--1---0--1--3--3-
-0--0--2--0-----2----0--2--0--------0--------------2-----0--2/4\3/4--2--0--0--0--0--2--------------
----0--4--------2-------4--------2--------------2-----------------------0-----0--------------------
---------------------------------------------------------------------------------------------------
---------------------------------------------------------------------------------------------------

                                                  VERSE 2
-------------------------------0-------------------------------------------------------------------
-3/5\3--1--0--1--0----------3----3----------3-------0-----------0-----0-----------0-----0--0-------
--------------------2----0---------------0----------0--0--2--0-----2-----0--2--0-----2--------0--2-
----------------------2------------2--2----------------0--2--------2--------2--------2-----------2-
---------------------------------------------------------------------------------------------------
-----------------------------------------------0--3-------2--------0--------2--------0-----------2-

----------------0--3-------------------------------------5/7-----------0--3-------0--3--3-----3----
----0--------3--------0--1/3------3--1----------------3--------5p3--3-----3----3-----3--3-----3----
-0--------0-----------0--2/4------4--2-----0--0--3/4----------------4----------4-------------------
-------2-------------------------------------------------------------------------------------------
---------------------------------------------------------------------------------------------------
------------------------------3------2--4--------0--------------------------3--------------3-------

-3--0--------------------------------------------3---------------------3-------------0--------3----
-3-----3--1--1--1/3--1--0------1--0--1--0--1--0------1--0--1--0--1--0--3-------0--3--------------3-
-------------2--2/4--2--0------0--0--0--0--0--0------0--0--0--0--0--0-------0------------4p2-------
---------------------------------------------------------------------------------------------------
-----------------------------0---------------------2---------------------3-----------------2-------
-------------3-------3----3------------------------------------------------------------------------

----------------------------------------------------------------------------------------0---3--5---
----0---1---0-----1---0---1---1---0---3---3---5p3---3---5p3---3---3---3------4------3-------3--5---
-0------0------1--0-----------0-------0---------------------------5---5------5------5--------------
------------------------------------------------------------------0---0---0------0-----------------
--------3---------3-----------0-------2-------3---------3------------------------------------------
---------------------------------------------------------------------------------------------------
[ Tab from: http://www.guitartabs.cc/tabs/a/andress_tuck/man_in_the_mirror_acoustic_instrumental_tab_ver_2.html ]
CHORUS 1 :
        *                                          *                                 *
------6/7--------------6-------------------------6/7-------------------------------6/7--5--------0-
------5/6-------8--10--6---10---8--8--10---------5/6--------8--10--6--10--8--------5/6--5--8--8----
---0--6/7--7-9---------8---10------9---9---------6/7--7--9---------8--10--9--------6/7--------7----
-----------0-----------------------0--------------------------------------0------------------------
---------------------------------------------------------------------------------------------------
-3---------7-----------8-------------------0--3--------------------8---------0--3-------7-----7----

                    ~~
-----------------------3--0--3-----3--3-----3-----3-----0--3-----0--3-----0--3--------0--3---------
-8--8--8--10--------6--------3-----3--3-----3-----3--3-----3--3-----3--3-----3-----3-----3--3--5p3-
-9--9--9-----10--7--5--------4--4--------0-----0--0--------------------------------4---------------
--------------------0-----------------------------------------------0-----------0------------------
-----------------------------------------------------------------------------------------------3---
-8--8-10---------------------3--------2-----------0------------------------------------------------

                                   CHORUS 2 :
rep. ver.2 & chor. up to ~~chord   ~~~~~~                                                   *  \\
------------------------------------3--6--------8--8-----6--6------------------------------------6-
-0--1--0-----1--1--1--1--1----------3--6--8--8--8--8-----6--6-----8--------8--8--8--8--6-----3---6-
----------0-------------------------4--7--9--9-----------7--7-----7--9-----9--7--6--6--6-----3---4-
-------------0--0--0-----------------------------------------------------------------------------5-
----3----------------------------------------------------------------------------0--0--------------
----------------------0--2---0--3---3--7--8--8--------3--------7--------8-----6-----------3--------
                                                v  ^     v  ^

                            ~~    CHORUS 3 :
----------------------------------0/2/3/4---------4-------------------------4-------4--------------
-------8--8--8--8---10\5/6--6-----0/2/3/4---------4---------------------6---6-------6--------------
-------9--9--9--9-----------5----------------------------------------------------------------------
----------------------------0----------------------------------------------------------------------
------------------------------------------------------0h1/2---2/3---3-----------4-------5--6--7----
-0--8-----8---------------------------------4--4---------------------------------------------------

                                                            ~~                       ~~ ~~
-4--7-------4------------4---------------------------4--4---7----------------6----------11--16--16-
-6--7-------7----------------5--9---9---9------------4--4---7---9---9---9-------6/7--7--12--16--16-
-----------------------------5--8---7---6-------------------8--10--10--10------------6--11---------
--------5------4--3--1---------------------------------------------------------------5-------------
----------------------------------------0--------------------------------------------6-------------
--------------------------------7---6-------0--4--4---------8---9---9--10---------------11---------
                                                    v  ^                                    v   ^

                                                                          ~~                  ~~ ~~
--------------------------------------------------------------------4--4--7--------------6-------7-
-----12--12---------9--9--9--9----------------9--9--9--9------------4--4--7---9---9---9-----6/7--7-
-----11--11--------10--8--7--6--5---6--7--8--10--8--7--6------------------8--10--10--10-----5/6--6-
-----10--10---------------------4---5--6--7-------------------------------------------------4/5--5-
-11-----------------------------------------------------------------------------------------5/6--6-
-------------10--9-----7--6--5--4---5--6--7---9--7--6--5---0--4--4--------8---9---9--10------------
                                T   T  T  T   T  T  T  T            v  ^

CODA :                                                                               or this chord:
---------4--4-----------4--4-----------4--4-----------4--4----------4--4-----------4--4-------7--7-
---------6--6-----------4--4-----------4--4-----------6--6----------6--6-----------6--6-------7--7-
---------5--5-----------3--3-----------4--4-----------6--6----------6--6-----------6--6-------6--6-
---------4--4-----------4--4-----------3--3-----------4--4----------4--4-----------4--4-------5--5-
---------------0--3--3--------0--4--4--------0--6--6-------0--6--6--------0--6--6-------------6--6-
-0-4--4--------------------------------------------------------------------------------------------
         v  ^           V  ^           V  ^           V  ^          V  ^           V  ^

repeat coda freely & end with
-------------------------2-------3-------4---------------------------------------------------------
-------------------------4-------5-------6---------------------------------------------------------
-------------------------3-------4-------5---------------------------------------------------------
-------------------------2-------3-------4---------------------------------------------------------
---------------------------------------------------------------------------------------------------
---------0-------2-------2-------3-------4---------------------------------------------------------




ANIMO LA SALLE!



~¤^{bånånåts}^¤~
Comments