Anda - Tentang Seseorang Chords & Tabs

 

Tentang Seseorang Chords & Tabs

Anda Chords & Tabs

Version: 1 Type: Bass Tab 0 ratings
1 star 2 stars 3 stars 4 stars 5 stars
comments

Tentang Seseorang Bass Tab

   
-------------------------------------------------------------------------------
			     ANDA - Tentang Seseorang
-------------------------------------------------------------------------------

Tabbed By : rasyidi
e-mail: rasyidi@gmail.com

Tuning:Standard Tuning

Verse 1 & 2

Teruntuk mu hatiku
G|---------------------------------------------------------------------------|
D|---------------------------------------------------------------------------|
A|--------99--9---------------------------------55--5------------------------|
E|---------------------------------------------------------------------------|

Inginku bersuara
G|---------------------------------------------------------------------------|
D|---------------------------------------------------------------------------|
A|---------------------------------------------------------------------------|
E|---------00-----------------------------------55---------------------------|

Merangkai semua tanya
G|---------------------------------------------------------------------------|
D|---------------------------------------------------------------------------|
A|----------99----------------------------------55---------------------------|
E|---------------------------------------------------------------------------|

Imagi yang terlintas
G|---------------------------------------------------------------------------|
D|---------------------------------------------------------------------------|
A|---------------------------------------------------------------------------|
E|----------00-----------------------------------55--------------------------|

Berjalan pada suatu
G|---------------------------------------------------------------------------|
D|---------------------------------------------------------------------------|
A|-----------------------------------------------44--------------------------|
E|-----------77--------------------------------------------------------------|

Tanya selalu mengangguku
G|---------------------------------------------------------------------------|
D|---------------------------------------------------------------------------|
A|-----------44----------------------------------99--------------------------|
E|---------------------------------------------------------------------------|

seseorang
G|---------------------------------------------------------------------------|
D|---------------------------------------------------------------------------|
A|----------44444------------------------------------------------------------|
E|---------------------------------------------------------------------------|

Itukah dirimu kasih
G|---------------------------------------------------------------------------|
D|-----------77----------------------------------00--------------------------|
A|---------------------------------------------------------------------------|
E|---------------------------------------------------------------------------|

REPEAT X1 [Start back at teruntuk mu hati FOR Kepada yang tercinta...]

Akankah seseorang
G|---------------------------------------------------------------------------|
D|---------------------------------------------------------------------------|
A|------------------------------------------------44-------------------------|
E|----------77---------------------------------------------------------------|

Yang ku mimpikan kan hadir
G|---------------------------------------------------------------------------|
D|---------------------------------------------------------------------------|
A|----------44------------------------------------99-------------------------|
E|---------------------------------------------------------------------------|
[ Tab from: http://www.guitartabs.cc/tabs/a/anda/tentang_seseorang_btab.html ]
Raut Halus
G|---------------------------------------------------------------------------|
D|---------------------------------------------------------------------------|
A|----------4444-------------------------------------------------------------|
E|---------------------------------------------------------------------------|

Menyelimuti jantung ku
G|---------------------------------------------------------------------------|
D|---------------------------------------------------------------------------|
A|----------77-------------------------------------00------------------------|
E|---------------------------------------------------------------------------|


Chorus

Cinta hanyalah cinta...
G:---------------------------------------------------------------------------|
D:---------------------------------------------------------------------------|
A:---------22----------------------------------------------------------------|
E:--------------------------------------------------00-----------------------|

Hidup dan mati untuk mu...
G:---------------------------------------------------------------------------|
D:---------------------------------------------------------------------------|
A:----------00----------------------------------------99---------------------|
E:---------------------------------------------------------------------------|

Mungkinkah semua tanya...
g:---------------------------------------------------------------------------|
D;---------------------------------------------------------------------------|
A:-----------22----------------------------------------44--------------------|
E:---------------------------------------------------------------------------|

Kau yang jawab...
g:---------------------------------------------------------------------------|
D:---------------------------------------------------------------------------|
A:-----999999----------------------------------------------------------------|
E:---------------------------------------------------------------------------|

Dan tentang sesorang...
g:---------------------------------------------------------------------------|
D:---------------------------------------------------------------------------|
A:------------22-------------------------------------------------------------|
E:--------------------------------------------------------00-----------------|

Itu pula dirimu...
g:---------------------------------------------------------------------------|
D:---------------------------------------------------------------------------|
A:------------00------------------------------------------99-----------------|
E:---------------------------------------------------------------------------|

Ku bersumpah akan mencinta
G|---------------------------------------------------------------------------|
D|---------------------------------------------------------------------------|
A|-----22-------------44-----------------------------99----------------------|
E|---------------------------------------------------------------------------|

oh...ohh.....
G|---------------------------------------------------------------------------|
D|---------------------------------------------------------------------------|
A|-------10-/-11-------------------------------------------------------------|
E|---------------------------------------------------------------------------|

Solo
G|---------------------------------------------------------------------------|
D|---------------------------------------------------------------------------|
A|----9----------5----------7---------0--------------------------------------|
E|---------------------------------------------------------------------------|

G|---------------------------------------------------------------------------|
D|---------------------------------------------------------------------------|
A|---------------------------------------------------------------------------|
E|---------------------------------------------------------------------------|

Please correct this tab if you feel so and re-submit it to any tablature site, and feel free to
distribute this tab. Mail me at rasyidi@gmail.com

| /  slide up
| \  slide down
| h  hammer-on
| p  pull-off
| ~  vibrato
| +  harmonic
| x  Mute note
===============================================================================
Comments