And You Will Know Us By The Trail Of Dead - Worlds Apart Chords & Tabs

 

Worlds Apart Chords & Tabs

And You Will Know Us By The Trail Of Dead Chords & Tabs

Version: 2 Type: Tab 0 ratings
1 star 2 stars 3 stars 4 stars 5 stars
comments

Worlds Apart Tab

   
-------------------------------------------------------------------------------
			     World's Apart - And You Will Know Us By The Trail Of Dead
-------------------------------------------------------------------------------
Tabbed by: Ben Chisnall
Email:bchisnall@hotmail.com

Tuning:
Standard
[ Tab from: http://www.guitartabs.cc/tabs/a/and_you_will_know_us_by_the_trail_of_dead/worlds_apart_tab_ver_2.html ]
e|---2--------2--------2-------2---------2-------2---------2-------2---------|
B|-----3--------3--------3--------3---------3-------3----------3-------3-----|
G|---------------------------------------------------------------------------|
D|-0-------2--------------------------0--------------------------------------|
A|------------------2--------------------------0-----------------------------|
E|---------------------------3---------------------------3--------3----------|

Then before chorus play F# instead of that final G. 

Chorus: 

G  	 D            E          B
How they laugh as we shovel the ashes
 
G       D   B
Of the twin towers etc


| /  slide up
| \  slide down
| h  hammer-on
| p  pull-off
| ~  vibrato
| +  harmonic
| x  Mute note
===============================================================================
Comments