And You Will Know Us By The Trail Of Dead - Mach Schau Chords & Tabs

 

Mach Schau Chords & Tabs

And You Will Know Us By The Trail Of Dead Chords & Tabs

Version: 1 Type: Tab 0 ratings
1 star 2 stars 3 stars 4 stars 5 stars
comments

Mach Schau Tab

I thought it was about time someone tabs the songs off of this badass CD. If you think this is all wrong or you want to compliment
me on my greatness, drop me a line alexmichael12000@yahoo.com

^   Pulloff


[ Tab from: http://www.guitartabs.cc/tabs/a/and_you_will_know_us_by_the_trail_of_dead/mach_schau_tab.html ]
-------------------------------------------------------------------------------------------------------------------------------------------                                                            
-------------------------------------------------------------------------------------------------------------------------------------------      
--------------------------------------------------------------------------------------------------------7--7--7--7--7--7^5-----     
--------------------------------7--7--7--7--5--7^5--0-------------------------------------------------------------------------    REPEAT   4x
-----------------------------------------------------------------------5--7--5--7--5--0--3------------------------------------------     
---5--7--5--7--5--0--3----------------------------------------------------------------------------------------------------------------  




------------------------------------------------------------------------------------------        
------------------------------------------------------------------------------------------        
---------------------------7^5--7^5--7^5--7^5--7--9--7--5-------------------     
------------------------------------------------------------------------------------------        
------------------------------------------------------------------------------------------        
--4-6-4-6-8-6-4---------------------------------------------------------------------


Part where they repeat the words "Mach Schau". Strum this over and over again

----------------
------------------
--------------------
------------------
----7-7-7-7-------
----7-7-7-7--------       
Comments