And You Will Know Us By The Trail Of Dead - Another Morning Stoner Chords & Tabs

 

Another Morning Stoner Chords & Tabs

And You Will Know Us By The Trail Of Dead Chords & Tabs

Version: 1 Type: Tab 0 ratings
1 star 2 stars 3 stars 4 stars 5 stars
comments

Another Morning Stoner Tab

intro               
           1st part                        2nd part
e ---------------------------  e -----------------------------
b ---------------------------  b --8-10-8-10/12-10-13-12-10-8- 
g --7-9-7-9/11-9-12-11-9-7---  g -9-9--9----------------------
d -9-9-9---------------------  d -----------------------------
a ---------------------------  a 0----------------------------
e 0--------------------------  e -----------------------------
[ Tab from: http://www.guitartabs.cc/tabs/a/and_you_will_know_us_by_the_trail_of_dead/another_morning_stoner_tab.html ]
verse
e -0----0-------- 6X
b -0----0--------
g -0----2--------
d -0----2--------
a -X----0--------
e -3------------- (listen to song for stumming)

e -0-0-00-0--00-0-0-0--0-0-00-0--00-0-0-0-0-0-
b -7-5-33-5--77-5-3-5--7-5-33-5--77-5-8-7-5-0-
g --------------------------------------------
d --------------------------------------------
a --------------------------------------------
e --------------------------------------------

intro 2x
verse 2x
intro 2x
 
e ---10--- 20x --7-- 4x --3-- 4x
b -----12-     ---8-    ---3-
g -12-----     -9---    -5---
d --------     -----    -----
a --------     -----    -----
e --------     -----    -----

intro 

that's all I have, hope it works for you
Comments