And You Will Know Us By The Trail Of Dead - A Perfect Teenhood Chords & Tabs

 

A Perfect Teenhood Chords & Tabs

And You Will Know Us By The Trail Of Dead Chords & Tabs

Version: 1 Type: Tab 0 ratings
1 star 2 stars 3 stars 4 stars 5 stars
comments

A Perfect Teenhood Tab

Band          : "...And You Will Know Us by the Trail of Dead"
Album         : "Madonna" ('1999)
Song          : "A Perfect Teenhood" (Track #12/13)
Group Members : Kevin Allen; Neil Busch; Jason Reece; Conrad Keely

 Ok , this song is easy to play , so even dummys like you can play it , well
maybe well anyway, i dont no how to do the intro, and i dont want to learn, it is dum
   yea so here
[ Tab from: http://www.guitartabs.cc/tabs/a/and_you_will_know_us_by_the_trail_of_dead/a_perfect_teenhood_tab.html ]
       L= let ring for a little while
     ---------------------------------------------------------
     ---------------------------------------------------------
     ---------------------------------------------------------
     ---5--6--12L--5--6--12L--5--6--12L--this goes on for a while
     ---5--6--12---5--6--12---5--6--12-------------------------
     ---3--4--10---3--4--10---3--4--10-------------------------

       after about two hours of this , it goes like this

      THIS:
     ---------------------------------------------------------
     ---------------------------------------------------------
     ---------------------------------------------------------
     -7L--5L--12L--10L--7L--5L--12L--10L-- this goes on like twice in the song
     -7---5---12---10---7---5---12---10-----------------------
     -5---3---10---8----5---3---10---8------------------------

if you have any questions dont ask me, but you can email me (david)
                      Cacaface14@aol.com
Comments