Anberlin - We Dream In Heist Acoustic Chords & Tabs

 

We Dream In Heist Acoustic Chords & Tabs

Anberlin Chords & Tabs

Version: 1 Type: Tab 0 ratings
1 star 2 stars 3 stars 4 stars 5 stars
comments

We Dream In Heist Acoustic Tab

Artist: Anberlin
Song: We Dream In Heist Acoustic
Tabber: oska

Intro:
e-----------------------------|
B-----------------------------|
G-----------------------------|
D---9------4-----6------8-----|  x2
A---9-x12--4-x4--6-x12--8-x3--|
E---7------2-----4------6-----|

Verse:

e----------------|
B----------------|
G-------9--------|
D---9---9--------|  x2 (palm muted)
A---9---7--------|
E---7------------|

e----------------|
B----------------|
G-------9--------|
D---9---9--------|  x2 normal
A---9---7--------|
E---7------------|
[ Tab from: http://www.guitartabs.cc/tabs/a/anberlin/we_dream_in_heist_acoustic_tab.html ]
Pre-chorous:

e----------------|
B----------------|
G-------9--------|
D---6---9--------|  x2
A---6---7--------|
E---4------------|


Chorous:

e------------------|
B------------------|
G-------9-------9--|
D---9---9---6---9--|  x1
A---9---7---6---7--|
E---7-------4------|

Verse
Pre-Chorous
Chorous

Bridge:

e------------|
B------------|
G------------|
D---9--------|
A---9--------|
E---7--------|

Final verse:

e------------|
B------------|
G------------|
D---9--------|
A---9--------|
E---7--------|

Pre-chorous
Chorous

divirta-se aeeee!
Comments