Anberlin - Time And Confusion Chords & Tabs

 

Time And Confusion Chords & Tabs

Anberlin Chords & Tabs

Version: 1 Type: Tab 0 ratings
1 star 2 stars 3 stars 4 stars 5 stars
comments

Time And Confusion Tab

   
-------------------------------------------------------------------------------
			    Time and Confusion - Anberlin
-------------------------------------------------------------------------------



Transcribed by falloutboy682

 Music by Anberlin

 

Gtr I (D A D G B E) - 'Untitled'
Gtr II (D A D G B E) - 'Untitled'


 Intro
  Q=172
  D5    A/C#  D5G5                A5                 B5
 4/4
  Gtr I
  E E E E E E E E   +E  E Q  Q  E E   +E  E Q  E E E E   +E  E Q  Q  Q
|-----------------|-----------------|------------------|----------------|
|-----------------|-----------------|------------------|----------------|
|-----------------|-----------------|------------------|----------------|
|-7-7-7-7-7-7-7---|-----------------|------------------|----------------|
|-5-5-5-4-4-4-5-5-|-(5)-5-x--x--x-7-|-(7)-7-x--x-----9-|-(9)-9-x--x--x--|
|---------------5-|-(5)-5-x--x--x-7-|-(7)-7-x--x-4-7-9-|-(9)-9-x--x--x--|
|
| Gtr II
| E E E E E E E E   +E  E q  q  E E   +E  E q  q   E E   +E  E q  q  q
|-----------------|-----------------|------------------|----------------|
|-----------------|-----------------|------------------|----------------|
|-7-7-7-6-6-6-7-7-|-(7)-7-7--7--7-7-|-(7)-7-7--7---7-7-|-(7)-7-7--7--7--|
|-----------------|-----------------|------------------|----------------|
|-5-5-5-4-4-4-5-5-|-(5)-5-5--5--5-5-|-(5)-5-5--5---5-5-|-(5)-5-5--5--5--|
|-----------------|-----------------|------------------|----------------|


  D5    A/C#  D5G5                A5                 B5
  E E E E E E E E   +E  E Q  Q  E E   +E  E Q  E E E E
|-----------------|-----------------|------------------|
|-----------------|-----------------|------------------|
|-----------------|-----------------|------------------|
|-7-7-7-7-7-7-7---|-----------------|------------------|
|-5-5-5-4-4-4-5-5-|-(5)-5-x--x--x-7-|-(7)-7-x--x-----9-|
|---------------5-|-(5)-5-x--x--x-7-|-(7)-7-x--x-4-7-9-|
|
| E E E E E E E E   +E  E q  q  E E   +E  E q  q   E E
|-----------------|-----------------|------------------|
|-----------------|-----------------|------------------|
|-7-7-7-6-6-6-7-7-|-(7)-7-7--7--7-7-|-(7)-7-7--7---7-7-|
|-----------------|-----------------|------------------|
|-5-5-5-4-4-4-5-5-|-(5)-5-5--5--5-5-|-(5)-5-5--5---5-5-|
|-----------------|-----------------|------------------|


                   D5    A/C#  D5G5
  +E  E Q  Q  Q    E E E E E E E E
|----------------|-------------------||
|----------------|-------------------||
|----------------|-------------------||
|----------------|-7-7-7-7-7-7-7-----||
|-(9)-9-x--x--x--|-5-5-5-4-4-4-5-5---||
|-(9)-9-x--x--x--|---------------5---||
|
| +E  E q  q  q    E E E E E E E E
|----------------|-------------------||
|----------------|-------------------||
|-(7)-7-7--7--7--|-7-7-7-6-6-6-7-7---||
|----------------|-------------------||
|-(5)-5-5--5--5--|-5-5-5-4-4-4-5-5---||
|----------------|-------------------||


 Verse
                          D5/G
   >                               >
  +W           +H     +E  E E E   +W           +H.      +E  E
|------------|------------------|------------|-----------------|
|------------|------------------|------------|-----------------|
|------------|------------------|------------|-----------------|
|------------|------------7-7-7-|-(7)--------|-(7)------(7)----|
|-(5)--------|-(5)----(5)-5-5-5-|-(5)--------|-(5)------(5)----|
|-(5)--------|-(5)----(5)-5-5-5-|-(5)--------|-(5)------(5)-9--|
|
|  >
| +W           +W                 +W           +W
|------------|------------------|------------|-----------------|
|------------|------------------|------------|-----------------|
|-(7)--------|-(7)--------------|-(7)--------|-(7)-------------|
|------------|------------------|------------|-----------------|
|-(5)--------|-(5)--------------|-(5)--------|-(5)-------------|
|------------|------------------|------------|-----------------|


                                  D5                              G5
                                           >
  +Q.   E +Q.    E    +H      +E  E E E   +W           +H     +E  E E E
|------------------|--------------------|------------|-------------------|
|------------------|--------------------|------------|-------------------|
|------------------|--------------------|------------|-------------------|
|---------------11-|-(11)----(11)-7-7-7-|-(7)--------|-(7)----(7)--------|
|-------9-(9)------|--------------5-5-5-|-(5)--------|-(5)----(5)-5-5-5--|
|-(9)--------------|--------------------|------------|------------5-5-5--|


                                           D5/G
   >
  +W                       +H          +E   E E  E
|------------------------|-------------------------|
|------------------------|-------------------------|
|------------------------|-------------------------|
|------------------------|------------------7-7--7-|
|-(5)--------------------|-(5)---------(5)--5-5--5-|
|-(5)--------------------|-(5)---------(5)--5-5--5-|
|
| Gtr II
|  PM-----------------------------------------------
|  E   E E  E  E E  E  E    E   E  E E  E   E E  E
|-----10-9----10-9----10-|--9-----10-9-----12-9----|
|----------10------10----|-----10------10-------10-|
|------------------------|-------------------------|
|------------------------|-------------------------|
|------------------------|-------------------------|
|------------------------|-------------------------|


   >
  +W                      +H.              +E   E
|-----------------------|--------------------------|
|-----------------------|--------------------------|
|-----------------------|--------------------------|
|-(7)-------------------|-(7)--------------(7)-----|
|-(5)-------------------|-(5)--------------(5)-----|
|-(5)-------------------|-(5)--------------(5)--9--|
|
|----------------------------------------------|
|  E  E  E  E E  E  E E    E   E E  E  E E  E   E
|-10--9----10-9----10-9-|-----10-9----12-9-----10--|
|-------10------10------|-10-------10------10------|
|-----------------------|--------------------------|
|-----------------------|--------------------------|
|-----------------------|--------------------------|
|-----------------------|--------------------------|


                                              D5
  +Q.       E +Q.       E    +H           +E   E  E E
|-------------------------|---------------------------|
|-------------------------|---------------------------|
|-------------------------|---------------------------|
|----------------------11-|-(11)---------(11)--7--7-7-|
|-----------9-(9)---------|--------------------5--5-5-|
|-(9)---------------------|---------------------------|
|
|  PM--------------------------------------------------
|  E   E  E E  E   E E  E     E  E  E  E   E   E  E E
|--9-----10-9-----10-9----|--10--9----12---9-----10-9-|
|-----10------10-------10-|--------10---------10------|
|-------------------------|---------------------------|
|-------------------------|---------------------------|
|-------------------------|---------------------------|
|-------------------------|---------------------------|


                                               D/F#
   >
  +W                       +H           E  E E E
|------------------------|------------------------||
|------------------------|------------------------||
|------------------------|------------------------||
|-(7)--------------------|-(7)--------------------||
|-(5)--------------------|-(5)----------x--x-x-5--||
|------------------------|--------------x--x-x-4--||
|
|----------------------------------------------|
|  E   E E  E  E E  E  E    E   E  E E  E  E E E
|-----10-9----10-9----10-|--9-----10-9----10-9----||
|-10-------10------10----|-----10------10---------||
|------------------------|------------------------||
|------------------------|---------------------7--||
|------------------------|------------------------||
|------------------------|------------------------||


 Pre-Chorus
          G5                     D/F#        G5                     D/F#
  +E  E E E q  E E   E E Q  Q  E E   +E  E E E q  E E   E E Q  Q  E E
|------------------|---------------|------------------|----------------|
|------------------|---------------|------------------|----------------|
|------------------|---------------|------------------|----------------|
|------------------|---------------|------------------|----------------|
|-(5)-5-5-5-5--x-x-|-x-x-x--x--x-5-|-(5)-5-5-5-5--x-x-|-x-x-x--x--x-5--|
|-(4)-4-4-5-5--x-x-|-x-x-x--x--x-4-|-(4)-4-4-5-5--x-x-|-x-x-x--x--x-4--|
|
| +E  E E E q  E E   E E q  q  E E   +E  E E E q  E E   E E q  q  E E
|------------------|---------------|------------------|----------------|
|------------------|---------------|------------------|----------------|
|--------------x-x-|-7-7-7--7--7---|--------------x-x-|-7-7-7--7--7----|
|-(7)-7-7-7-7------|-------------7-|-(7)-7-7-7-7------|-------------7--|
|------------------|---------------|------------------|----------------|
|------------------|---------------|------------------|----------------|


          G5                   D/E5
  +E  E E E q  E E   E E Q  Q  E E   +H     H
|------------------|---------------|----------------|
|------------------|---------------|----------------|
|------------------|---------------|----------------|
|------------------|---------------|----------------|
|-(5)-5-5-5-5--x-x-|-x-x-x--x--5-2-|-(2)----2-------|
|-(4)-4-4-5-5--x-x-|-x-x-x--x--4-2-|-(2)----2-------|
|
| +E  E E E q  E E   E E q  q  E E   +H     E E E E
|------------------|---------------|----------------|
|------------------|---------------|----------------|
|--------------x-x-|-7-7-7--7--7-7-|-(7)----7-7-7-9-|
|-(7)-7-7-7-7------|---------------|----------------|
|------------------|-------------5-|-(5)----5-5-5-7-|
|------------------|---------------|----------------|


  D/F#     G5
  H         H           W
|---------------------|--------------------||
|---------------------|--------------------||
|---------------------|--------------------||
|---------------------|--------------------||
|-5---------5---------|--------------------||
|-4---------5---------|--------------------||
|
|                       PM-------------|
| E E E  E  E  E  Q     E E E E  E E E E
|---------------------|--------------------||
|---------------------|---------10---------||
|-9-9-9-11-11-11-11\--|-7---7--------7-----||
|---------------------|---7---7----7---7---||
|-7-7-7--9--9--9--9\--|--------------------||
|---------------------|--------------------||


 Chorus
  $
  D5                                      G5
  E E E E E E E E   E E E E  E  E  E  E   E E E E E E E E   E E E E E E E E
|-----------------|---------------------|-----------------|------------------|
|-----------------|---------------------|-----------------|------------------|
|-----------------|---------------------|-----------------|------------------|
|-7-7-7-7-7-7-7-7-|-7-7-7-7--7--7--7--7-|-----------------|------------------|
|-5-5-5-5-5-5-5-5-|-5-5-5-5--5--5--5--5-|-5-5-5-5-5-5-5-5-|-5-5-5-5-5-5-5-5--|
|-----------------|---------------------|-5-5-5-5-5-5-5-5-|-5-5-5-5-5-5-5-5--|
|
| E E E E E E E E   E E E E  E  E  E  E   E E E E E E E E   E E E E E E E E
|-----------------|---------------------|-----------------|------------------|
|-----------------|---------------------|-----------------|------------------|
|-7-7-7-7-7-7-7-7-|-9-9-9-9-11-11-11-11-|-7-7-7-7-7-7-7-7-|-7-7-7-7-7-7-7-7--|
|-----------------|---------------------|-----------------|------------------|
|-5-5-5-5-5-5-5-5-|-7-7-7-7--9--9--9--9-|-5-5-5-5-5-5-5-5-|-5-5-5-5-5-5-5-5--|
|-----------------|---------------------|-----------------|------------------|


  B5    A5    B5G5                      D/F#                G5
  E E E E E E E E   +E  E E E E E E E   E E E E E E E E   E E E E q  Q
|-----------------|-------------------|-----------------|----------------|
|-----------------|-------------------|-----------------|----------------|
|-----------------|-------------------|-----------------|----------------|
|-----------------|-------------------|-----------------|----------------|
|-9-9-9-7-7-7-9-5-|-(5)-5-5-5-5-5-5-5-|-5-5-x-5-5-x-5-5-|-x-5-5-x-5--5---|
|-9-9-9-7-7-7-9-5-|-(5)-5-5-5-5-5-5-5-|-4-4-x-4-4-x-4-4-|-x-5-5-x-5--5---|
|
| E E E E E E E E   +E  E E E E E E E   E E E E E E E E   E E E E q  Q
|-----------------|-------------------|-----------------|----------------|
|-----------------|-------------------|-----------------|----------------|
|-7-7-7-6-6-6-7-7-|-(7)-7-7-7-7-7-7-7-|-6-6-x-6-6-x-6-6-|-x-7-7-x-7--7---|
|-----------------|-------------------|-----------------|----------------|
|-5-5-5-4-4-4-5-5-|-(5)-5-5-5-5-5-5-5-|-4-4-x-4-4-x-4-4-|-x-5-5-x-5--5---|
|-----------------|-------------------|-----------------|----------------|


  B5                                  G5
  E E E E E E E E   E E E E E E E E   E E E E E E E E   E E E E E E E E
|-----------------|-----------------|-----------------|------------------|
|-----------------|-----------------|-----------------|------------------|
|-----------------|-----------------|-----------------|------------------|
|-----------------|-----------------|-----------------|------------------|
|-9-9-9-9-9-9-9-9-|-9-9-9-9-9-9-9-9-|-5-5-5-5-5-5-5-5-|-5-5-5-5-5-5-5-5--|
|-9-9-9-9-9-9-9-9-|-9-9-9-9-9-9-9-9-|-5-5-5-5-5-5-5-5-|-5-5-5-5-5-5-5-5--|
|
| E E E E E E E E   E E E E E E E E   E E E E E E E E   E E E E E E E E
|-----5-----5-----|-5-----5-----5---|-----5-----5-----|-5-----5-----5----|
|-2-3---2-3---2-3-|---2-3---2-3---3-|-2-3---2-3---2-3-|---2-3---2-3---3--|
|-----------------|-----------------|-----------------|------------------|
|-----------------|-----------------|-----------------|------------------|
|-----------------|-----------------|-----------------|------------------|
|-----------------|-----------------|-----------------|------------------|


                                                               To Coda
  D/F#                                G5
  E E E E E E E E   E E E E q   Q     E E E E E E E E   E E E E q   Q
|-----------------|-----------------|-----------------|------------------||
|-----------------|-----------------|-----------------|------------------||
|-----------------|-----------------|-----------------|------------------||
|-----------------|-----------------|-----------------|------------------||
|-5-5-x-5-5-x-5-5-|-x-5-5-x-5---5---|-5-5-x-5-5-x-5-5-|-x-5-5-x-5---5----||
|-4-4-x-4-4-x-4-4-|-x-4-4-x-4---4---|-5-5-x-5-5-x-5-5-|-x-5-5-x-5---5----||
|
| E E E E E E E E   E E E E E E E E   E E E E E E E E   E E E E E E E E
|-------------5-5-|-5-----------5-5-|-------------5-5-|-5-----------5-5--||
|-2-2-2-3-3-3-----|---2-2-2-3-3-----|-2-2-2-3-3-3-----|---2-2-2-3-3------||
|-----------------|-----------------|-----------------|------------------||
|-----------------|-----------------|-----------------|------------------||
|-----------------|-----------------|-----------------|------------------||
|-----------------|-----------------|-----------------|------------------||


 Post-Chorus
  D5    A/C#  D5G5                A5                 B5
  E E E E E E E E   +E  E Q  Q  E E   +E  E Q  E E E E
|-----------------|-----------------|------------------|
|-----------------|-----------------|------------------|
|-----------------|-----------------|------------------|
|-7-7-7-7-7-7-7---|-----------------|------------------|
|-5-5-5-4-4-4-5-5-|-(5)-5-x--x--x-7-|-(7)-7-x--x-----9-|
|---------------5-|-(5)-5-x--x--x-7-|-(7)-7-x--x-4-7-9-|
|
| E E E E E E E E   +E  E q  q  E E   +E  E q  q   E E
|-----------------|-----------------|------------------|
|-----------------|-----------------|------------------|
|-7-7-7-6-6-6-7-7-|-(7)-7-7--7--7-7-|-(7)-7-7--7---7-7-|
|-----------------|-----------------|------------------|
|-5-5-5-4-4-4-5-5-|-(5)-5-5--5--5-5-|-(5)-5-5--5---5-5-|
|-----------------|-----------------|------------------|


                   D5    A/C#  D5G5
  +E  E Q  Q  Q    E E E E E E E E
|----------------|-------------------||
|----------------|-------------------||
|----------------|-------------------||
|----------------|-7-7-7-7-7-7-7-----||
|-(9)-9-x--x--x--|-5-5-5-4-4-4-5-5---||
|-(9)-9-x--x--x--|---------------5---||
|
| +E  E q  q  q    E E E E E E E E
|----------------|-------------------||
|----------------|-------------------||
|-(7)-7-7--7--7--|-7-7-7-6-6-6-7-7---||
|----------------|-------------------||
|-(5)-5-5--5--5--|-5-5-5-4-4-4-5-5---||
|----------------|-------------------||


 Verse
                          D5/G
   >                               >
  +W           +H     +E  E E E   +W           +H.      +E  E
|------------|------------------|------------|-----------------|
|------------|------------------|------------|-----------------|
|------------|------------------|------------|-----------------|
|------------|------------7-7-7-|-(7)--------|-(7)------(7)----|
|-(5)--------|-(5)----(5)-5-5-5-|-(5)--------|-(5)------(5)----|
|-(5)--------|-(5)----(5)-5-5-5-|-(5)--------|-(5)------(5)-9--|
|
|  >
| +W           +W                 +W           +W
|------------|------------------|------------|-----------------|
|------------|------------------|------------|-----------------|
|-(7)--------|-(7)--------------|-(7)--------|-(7)-------------|
|------------|------------------|------------|-----------------|
|-(5)--------|-(5)--------------|-(5)--------|-(5)-------------|
|------------|------------------|------------|-----------------|


                                  D5                              G5
                                           >
  +Q.   E +Q.    E    +H      +E  E E E   +W           +H     +E  E E E
|------------------|--------------------|------------|-------------------|
|------------------|--------------------|------------|-------------------|
|------------------|--------------------|------------|-------------------|
|---------------11-|-(11)----(11)-7-7-7-|-(7)--------|-(7)----(7)--------|
|-------9-(9)------|--------------5-5-5-|-(5)--------|-(5)----(5)-5-5-5--|
|-(9)--------------|--------------------|------------|------------5-5-5--|

[ Tab from: http://www.guitartabs.cc/tabs/a/anberlin/time_and_confusion_tab.html ]
                          D5/G
   >                               >
  +W           +H     +E  E E E   +W           +H.      +E  E
|------------|------------------|------------|-----------------|
|------------|------------------|------------|-----------------|
|------------|------------------|------------|-----------------|
|------------|------------7-7-7-|-(7)--------|-(7)------(7)----|
|-(5)--------|-(5)----(5)-5-5-5-|-(5)--------|-(5)------(5)----|
|-(5)--------|-(5)----(5)-5-5-5-|-(5)--------|-(5)------(5)-9--|


                                  D5                                D/F#
                                           >
  +Q.   E +Q.    E    +H      +E  E E E   +W           +H     E E E E
|------------------|--------------------|------------|-----------------||
|------------------|--------------------|------------|-----------------||
|------------------|--------------------|------------|-----------------||
|---------------11-|-(11)----(11)-7-7-7-|-(7)--------|-(7)-------------||
|-------9-(9)------|--------------5-5-5-|-(5)--------|-(5)----x-x-x-5--||
|-(9)--------------|--------------------|------------|--------x-x-x-4--||
|
| Gtr II
|  W                   W                   W            H.        E E
|------------------|--------------------|------------|-----------------||
|------------------|--------------------|------------|-----------------||
|------------------|--------------------|------------|-----------------||
|------------------|--------------------|------------|--------------7--||
|------------------|--------------------|------------|-----------------||
|------------------|--------------------|------------|-----------------||


 Pre-Chorus
          G5                     D/F#        G5                     D/F#
  +E  E E E q  E E   E E Q  Q  E E   +E  E E E q  E E   E E Q  Q  E E
|------------------|---------------|------------------|----------------|
|------------------|---------------|------------------|----------------|
|------------------|---------------|------------------|----------------|
|------------------|---------------|------------------|----------------|
|-(5)-5-5-5-5--x-x-|-x-x-x--x--x-5-|-(5)-5-5-5-5--x-x-|-x-x-x--x--x-5--|
|-(4)-4-4-5-5--x-x-|-x-x-x--x--x-4-|-(4)-4-4-5-5--x-x-|-x-x-x--x--x-4--|
|
| +E  E E E q  E E   E E q  q  E E   +E  E E E q  E E   E E q  q  E E
|------------------|---------------|------------------|----------------|
|------------------|---------------|------------------|----------------|
|--------------x-x-|-7-7-7--7--7---|--------------x-x-|-7-7-7--7--7----|
|-(7)-7-7-7-7------|-------------7-|-(7)-7-7-7-7------|-------------7--|
|------------------|---------------|------------------|----------------|
|------------------|---------------|------------------|----------------|


          G5                   D/E5
  +E  E E E q  E E   E E Q  Q  E E   +H     H
|------------------|---------------|----------------|
|------------------|---------------|----------------|
|------------------|---------------|----------------|
|------------------|---------------|----------------|
|-(5)-5-5-5-5--x-x-|-x-x-x--x--5-2-|-(2)----2-------|
|-(4)-4-4-5-5--x-x-|-x-x-x--x--4-2-|-(2)----2-------|
|
| +E  E E E q  E E   E E q  q  E E   +H     E E E E
|------------------|---------------|----------------|
|------------------|---------------|----------------|
|--------------x-x-|-7-7-7--7--7-7-|-(7)----7-7-7-9-|
|-(7)-7-7-7-7------|---------------|----------------|
|------------------|-------------5-|-(5)----5-5-5-7-|
|------------------|---------------|----------------|


                          D.S. al Coda
  D/F#     G5
  H         H           E E E E E E E E
|---------------------|-------------------||
|---------------------|-------------------||
|---------------------|-------------------||
|---------------------|-x-x-x-x-x-x-x-x---||
|-5---------5---------|-x-x-x-x-x-x-x-x---||
|-4---------5---------|-------------------||
|
|                       PM------------|
| E E E  E  E  E  Q     E E E E E E E E
|---------------------|-------------------||
|---------------------|-------------------||
|-9-9-9-11-11-11-11\--|-------------------||
|---------------------|-------------------||
|-7-7-7--9--9--9--9\--|-5-5-5-5-5-5-5-5---||
|---------------------|-------------------||


 Interlude
  &
  A5B5                                    A5
  E  E  q    q    q      q    q    q    E E
|---------------------|---------------------|
|---------------------|---------------------|
|-9s11-11---11---11---|-11---11---11---11-9-|
|-7s=9--9----9----9---|--9----9----9----9-7-|
|-7s=9--9----9----9---|--9----9----9----9-7-|
|-7s=9--9----9----9---|--9----9----9----9-7-|
|
| E  E  E E  E E  E E    E E  E E  E E  E E
|---------------------|---------------------|
|-5p=0--3p0--7p0--3p0-|--5p0--3p0--7p0--3p0-|
|---------------------|---------------------|
|---------------------|---------------------|
|---------------------|---------------------|
|---------------------|---------------------|


    B5
  E  E  q    q    q      q    q    q    Q
|---------------------|----------------------|
|---------------------|----------------------|
|-9s11-11---11---11---|-11---11---11---11----|
|-7s=9--9----9----9---|--9----9----9----9----|
|-7s=9--9----9----9---|--9----9----9----9----|
|-7s=9--9----9----9---|--9----9----9----9----|
|
| E  E  E E  E E  E E    E E  E E  E E  E E
|---------------------|----------------------|
|-5p=0--3p0--7p0--3p0-|--5p0--3p0--7p0--3p0--|
|---------------------|----------------------|
|---------------------|----------------------|
|---------------------|----------------------|
|---------------------|----------------------|


  F#G5                            F#5   G5                            A5
  E E q   q   q     q   q   q   E E   E E q   q   q     E E E E E E E E
|-----------------|-----------------|-----------------|------------------|
|-----------------|-----------------|-----------------|------------------|
|-6s7-7---7---7---|-7---7---7---7-6-|-6s7-7---7---7---|-7-7-7-7-7-7-7----|
|-4s5-5---5---5---|-5---5---5---5-4-|-4s5-5---5---5---|-5-5-5-5-5-5-5----|
|-4s5-5---5---5---|-5---5---5---5-4-|-4s5-5---5---5---|-5-5-5-5-5-5-5-7--|
|-4s5-5---5---5---|-5---5---5---5-4-|-4s5-5---5---5---|-5-5-5-5-5-5-5-7--|
|
| E E E E E E E E   E E E E E E E E   E E E E E E E E   E E E E E E E E
|-----------------|-----------------|-----------------|------------------|
|-----------------|-----------------|-----------------|------------------|
|-7p0-6p0-9p0-6p0-|-7p0-6p0-9p0-6p0-|-7p0-6p0-9p0-6p0-|-7p0-6p0-9p0-6-6--|
|-----------------|-----------------|-----------------|------------------|
|-----------------|-----------------|-----------------|---------------4--|
|-----------------|-----------------|-----------------|------------------|


      B5                                A5
  +E  E E E E E E E   E E E E E E E E   E E E E E E E E   E E E E E E E E
|-------------------|-----------------|-----------------|------------------|
|-------------------|-----------------|-----------------|------------------|
|-------------------|-----------------|-----------------|------------------|
|-------------------|-----------------|-----------------|------------------|
|-(7)-9-9-9-9-9-9-9-|-9-9-9-9-9-9-9-9-|-7-7-7-7-7-7-7-7-|-7-7-7-7-7-7-7-7--|
|-(7)-9-9-9-9-9-9-9-|-9-9-9-9-9-9-9-9-|-7-7-7-7-7-7-7-7-|-7-7-7-7-7-7-7-7--|
|
| +E  E E E E E E E   E E E E E E E E   E E E E E E E E   E E E E E E E E
|-------------------|-----------------|-----------------|------------------|
|-------------------|-----------------|-----------------|------------------|
|-(6)-7-7-7-7-7-7-7-|-7-7-7-7-7-7-7-7-|-9-9-9-9-9-9-9-9-|-9-9-9-9-9-9-9-9--|
|-------------------|-----------------|-----------------|------------------|
|-(4)-5-5-5-5-5-5-5-|-5-5-5-5-5-5-5-5-|-7-7-7-7-7-7-7-7-|-7-7-7-7-7-7-7-7--|
|-------------------|-----------------|-----------------|------------------|


  G5                                  A5
  E E E E E E E E   E E E E E E E E   E E E E E E E E   E E E E E E E E
|-----------------|-----------------|-----------------|------------------|
|-----------------|-----------------|-----------------|------------------|
|-----------------|-----------------|-----------------|------------------|
|-----------------|-----------------|-----------------|------------------|
|-5-5-5-5-5-5-5-5-|-5-5-5-5-5-5-5-5-|-7-7-7-7-7-7-7-7-|-7-7-7-7-7-7-7-7--|
|-5-5-5-5-5-5-5-5-|-5-5-5-5-5-5-5-5-|-7-7-7-7-7-7-7-7-|-7-7-7-7-7-7-7-7--|
|
| E E E E E E E E   E E E E E E E E   E E E E E E E E   E E E E E E E E
|-----------------|-----------------|-----------------|------------------|
|-----------------|-----------------|-----------------|------------------|
|-7-7-7-7-7-7-7-7-|-7-7-7-7-7-7-7-7-|-7-7-7-7-7-7-7-7-|-9-9-9-9-9-9-9-9--|
|-----------------|-----------------|-----------------|------------------|
|-5-5-5-5-5-5-5-5-|-5-5-5-5-5-5-5-5-|-5-5-5-5-5-5-5-5-|-7-7-7-7-7-7-7-7--|
|-----------------|-----------------|-----------------|------------------|


  B5       A5    B5 G5                      D/F#                G5
   E  E  E E E E  E E   +E  E E E E E E E   E E E E E E E E   E E E E q  Q
|---------------------|-------------------|-----------------|----------------|
|---------------------|-------------------|-----------------|----------------|
|---------------------|-------------------|-----------------|----------------|
|---------------------|-------------------|-----------------|----------------|
|--9--9--9-7-7-7--9-5-|-(5)-5-5-5-5-5-5-5-|-5-5-x-5-5-x-5-5-|-x-5-5-x-5--5---|
|--9--9--9-7-7-7--9-5-|-(5)-5-5-5-5-5-5-5-|-4-4-x-4-4-x-4-4-|-x-5-5-x-5--5---|
|
|  E  E  E E E E  E E   +E  E E E E E E E   E E E E E E E E   E E E E q  Q
|---------------------|-------------------|-----------------|----------------|
|---------------------|-------------------|-----------------|----------------|
|-11-11-11-9-9-9-11-7-|-(7)-7-7-7-7-7-7-7-|-7-7-x-7-7-x-7-7-|-x-7-7-x-7--7---|
|---------------------|-------------------|-----------------|----------------|
|--9--9--9-7-7-7--9-5-|-(5)-5-5-5-5-5-5-5-|-5-5-x-5-5-x-5-5-|-x-5-5-x-5--5---|
|---------------------|-------------------|-----------------|----------------|


 Chorus
  N.C.
  PM------------------------------------------------------------------|
  E E E E E E E E   E E E E E E E E   E E E E E E E E   E E E E E E E E
|-----------------|-----------------|-----------------|------------------|
|-----------------|-----------------|-----------------|------------------|
|-----------------|-----------------|-----------------|------------------|
|-----------------|-----------------|-----------------|------------------|
|-5-5-5-5-5-5-5-5-|-5-5-5-5-5-5-5-5-|-----------------|------------------|
|-----------------|-----------------|-5-5-5-5-5-5-5-5-|-5-5-5-5-5-5-5-5--|
|
| PM------------------------------------------------------------------|
| E E E E E E E E   E E E E E E E E   E E E E E E E E   E E E E E E E E
|-----------------|-----------------|-----------------|-5-5--------------|
|-----------------|-5-5-5-5-7-7-7-7-|---------5-5-----|------------------|
|-7-7-7-7-7-7-7-7-|-----------------|-7-7-7-7-----7-7-|-----7-7-7-7-7-7--|
|-----------------|-----------------|-----------------|------------------|
|-----------------|-----------------|-----------------|------------------|
|-----------------|-----------------|-----------------|------------------|


  B5    A5    B5G5                      D/F#                G5
  E E E E E E E E   +E  E E E E E E E   E E E E E E E E   E E E E q  Q
|-----------------|-------------------|-----------------|----------------|
|-----------------|-------------------|-----------------|----------------|
|-----------------|-------------------|-----------------|----------------|
|-----------------|-------------------|-----------------|----------------|
|-9-9-9-7-7-7-9-5-|-(5)-5-5-5-5-5-5-5-|-5-5-x-5-5-x-5-5-|-x-5-5-x-5--5---|
|-9-9-9-7-7-7-9-5-|-(5)-5-5-5-5-5-5-5-|-4-4-x-4-4-x-4-4-|-x-5-5-x-5--5---|
|
| E E E E E E E E   +E  E E E E E E E   E E E E E E E E   E E E E q  Q
|-----------------|-------------------|-----------------|----------------|
|-----------------|-------------------|-----------------|----------------|
|-7-7-7-6-6-6-7-7-|-(7)-7-7-7-7-7-7-7-|-6-6-x-6-6-x-6-6-|-x-7-7-x-7--7---|
|-----------------|-------------------|-----------------|----------------|
|-5-5-5-4-4-4-5-5-|-(5)-5-5-5-5-5-5-5-|-4-4-x-4-4-x-4-4-|-x-5-5-x-5--5---|
|-----------------|-------------------|-----------------|----------------|


  B5                                  G5
  E E E E E E E E   E E E E E E E E   E E E E E E E E   E E E E E E E E
|-----------------|-----------------|-----------------|------------------|
|-----------------|-----------------|-----------------|------------------|
|-----------------|-----------------|-----------------|------------------|
|-----------------|-----------------|-----------------|------------------|
|-9-9-9-9-9-9-9-9-|-9-9-9-9-9-9-9-9-|-5-5-5-5-5-5-5-5-|-5-5-5-5-5-5-5-5--|
|-9-9-9-9-9-9-9-9-|-9-9-9-9-9-9-9-9-|-5-5-5-5-5-5-5-5-|-5-5-5-5-5-5-5-5--|
|
| E E E E E E E E   E E E E E E E E   E E E E E E E E   E E E E E E E E
|-----5-----5-----|-5-----5-----5---|-----5-----5-----|-5-----5-----5----|
|-2-3---2-3---2-3-|---2-3---2-3---3-|-2-3---2-3---2-3-|---2-3---2-3---3--|
|-----------------|-----------------|-----------------|------------------|
|-----------------|-----------------|-----------------|------------------|
|-----------------|-----------------|-----------------|------------------|
|-----------------|-----------------|-----------------|------------------|


  D/F#                                G5
  E E E E E E E E   E E E E q   Q     E E E E E E E E   E E E E q   Q
|-----------------|-----------------|-----------------|------------------|
|-----------------|-----------------|-----------------|------------------|
|-----------------|-----------------|-----------------|------------------|
|-----------------|-----------------|-----------------|------------------|
|-5-5-x-5-5-x-5-5-|-x-5-5-x-5---5---|-5-5-x-5-5-x-5-5-|-x-5-5-x-5---5----|
|-4-4-x-4-4-x-4-4-|-x-4-4-x-4---4---|-5-5-x-5-5-x-5-5-|-x-5-5-x-5---5----|
|
| E E E E E E E E   E E E E E E E E   E E E E E E E E   E E E E E E E E
|-------------5-5-|-5-----------5-5-|-------------5-5-|-5-----------5-5--|
|-2-2-2-3-3-3-----|---2-2-2-3-3-----|-2-2-2-3-3-3-----|---2-2-2-3-3------|
|-----------------|-----------------|-----------------|------------------|
|-----------------|-----------------|-----------------|------------------|
|-----------------|-----------------|-----------------|------------------|
|-----------------|-----------------|-----------------|------------------|


 Outro
  D5    A/C#  D5G5                A5
  E E E E E E E E   +E  E Q  Q  E E
|-----------------|-----------------|
|-----------------|-----------------|
|-----------------|-----------------|
|-7-7-7-7-7-7-7---|-----------------|
|-5-5-5-4-4-4-5-5-|-(5)-5-x--x--x-7-|
|---------------5-|-(5)-5-x--x--x-7-|
|
| E E E E E E E E   +E  E q  q  E E
|-----------------|-----------------|
|-----------------|-----------------|
|-7-7-7-6-6-6-7-7-|-(7)-7-7--7--7-7-|
|-----------------|-----------------|
|-5-5-5-4-4-4-5-5-|-(5)-5-5--5--5-5-|
|-----------------|-----------------|


                 B5                   D5    A/C#  D5D5/G
  +E  E Q  E E E E   +E  E Q  Q  Q    E E E E E E E E
|------------------|----------------|-------------------|
|------------------|----------------|-------------------|
|------------------|----------------|-------------------|
|------------------|----------------|-7-7-7-7-7-7-7-7---|
|-(7)-7-x--x-----9-|-(9)-9-x--x--x--|-5-5-5-4-4-4-5-5---|
|-(7)-7-x--x-4-7-9-|-(9)-9-x--x--x--|---------------5---|
|
| +E  E q  q   E E   +E  E q  q  q    E E E E E E E E
|------------------|----------------|-------------------|
|------------------|----------------|-------------------|
|-(7)-7-7--7---7-7-|-(7)-7-7--7--7--|-7-7-7-6-6-6-7-7---|
|------------------|----------------|-------------------|
|-(5)-5-5--5---5-5-|-(5)-5-5--5--5--|-5-5-5-4-4-4-5-5---|
|------------------|----------------|-------------------|


   >
  +W           +W           +W           +W
|------------|------------|------------|--------*|
|------------|------------|------------|--------*|
|------------|------------|------------|--------*|
|-(7)--------|-(7)--------|-(7)--------|-(7)----*|
|-(5)--------|-(5)--------|-(5)--------|-(5)----*|
|-(5)--------|-(5)--------|-(5)--------|-(5)----*|
|
|  >
| +W           +W           +W           +W
|------------|------------|------------|--------*|
|------------|------------|------------|--------*|
|-(7)--------|-(7)--------|-(7)--------|-(7)----*|
|------------|------------|------------|--------*|
|-(5)--------|-(5)--------|-(5)--------|-(5)----*|
|------------|------------|------------|--------*|




--------------------------------------------------------------------------------


Duration Legend
---------------
W - whole; H - half; Q - quarter; E - 8th; S - 16th; T - 32nd; X - 64th; a - acciaccatura
+ - note tied to previous; . - note dotted; .. - note double dotted
Uncapitalized letters represent notes that are staccato (1/2 duration)
Irregular groupings are notated above the duration line
Duration letters will always appear directly above the note/fret number it represents the
duration for.  Duration letters with no fret number below them represent rests.  Multi-
bar rests are notated in the form Wxn, where n is the number of bars to rest for.  Low
melody durations appear below the staff

Tablature Legend
----------------
 h   - hammer-on
 p   - pull-off
 b   - bend
 pb  - pre-bend
 r   - bend release (if no number after the r, then release immediately)
 /\  - slide into or out of (from/to "nowhere")
 s   - legato slide
 S   - shift slide
 - natural harmonic
[n]  - artificial harmonic
n(n) - tapped harmonic
 ~   - vibrato
 tr  - trill
 T   - tap
 TP  - trem. picking
 PM  - palm muting
\n/  - tremolo bar dip; n = amount to dip
 \n  - tremolo bar down
 n/  - tremolo bar up
/n\  - tremolo bar inverted dip
 =   - hold bend; also acts as connecting device for hammers/pulls
 <> - volume swell (louder/softer)
 x   - on rhythm slash represents muted slash
 o   - on rhythm slash represents single note slash

Misc Legend
-----------
 |  - bar
||  - double bar
||o - repeat start
o|| - repeat end
*|  - double bar (ending)
 :  - bar (freetime)
 $  - Segno
 &  - Coda
Tempo markers -  = BPM(8/16=s8/s16), where s8 = swing 8ths, s16 = swing 16ths
Comments