Anberlin - Readyfuels Chords & Tabs

 

Readyfuels Chords & Tabs

Anberlin Chords & Tabs

Version: 2 Type: Tab 0 ratings
1 star 2 stars 3 stars 4 stars 5 stars
comments

Readyfuels Tab

   
Anberlin
Ready Fuels


Dropped-D Tuning


Intro ::: (1x Alone, 2x with Chords)
[-----------------------------------------------------------------------------]
[-----------------------------------------------------------------------------]
[-----------------------------------------------------------------------------]
[-----------------------------------------------------------------------------]
[12-----------10----------12-----------10----------12-----------10------------]
[---12-10-12-----12-10-0-----12-10-12-----12-10-0-----12-10-12-----12-10-0----]
  D                        A                        A#

[--------------------------] [----------------------]
[--------------------------] [----------------------]
[--------------------------] [-7777777777777777-----]
[--------------------------] [----------------------]
[-12-----------10----------] [-5555555555555555--8\-]
[-----12-10-12-----12-10-0-] [----------------------]
  A#


Verse ::: D  A#  A  C



Chorus Intro           Main Chorus
[---------]            [------------------------------------------------------]
[---------]<1x First   [------------------------------------------------------]
[---------]   Chorus   [3-3-3-3--5-5-5-5--7-7----------------3-3-3-3--5-5-5-5-]
[-00-00-0-]<2x Second  [3-3-3-3--5-5-5-5--7-7-0-0--3-3-3-3---3-3-3-3--5-5-5-5-]
[-00-00-0-]   Chorus   [1-1-1-1--3-3-3-3--5-5-0-0--3-3-3-3---1-1-1-1--3-3-3-3-]
[-00-00-0-]            [----------------------0-0--3-3-3-3--------------------]
[ Tab from: http://www.guitartabs.cc/tabs/a/anberlin/readyfuels_tab_ver_2.html ]
[------------------------------------------------------------------------]
[------------------------------------------------------------------------]
[-7-7----------------3-3-3-3--5-5-5-5--5-5-5-5---------------------------]
[-7-7-0-0--3-3-3-3---3-3-3-3--5-5-5-5--5-5-5-5--3-3-3-3---5---0-3-0-0-00-]
[-5-5-0-0--3-3-3-3---1-1-1-1--3-3-3-3--3-3-3-3--3-3-3-3---5---0-3-0-0-00-]
[-----0-0--3-3-3-3---------------------3-3-3-3--3-3-3-3---5---0-3-0-0-00-]


Bridge (This riff played over solo)
[-----------------]
[-----------------]
[-3-3-3-3--5-5--2-]
[-3-3-3-3--5-5--0-]
[-1-1-1-1--3-3--0-]
[----------3-3--0-]

Solo
[------------------------------------------------------8~--8------------------]
[---------10~------8-----------------------------------------11-10----10------]
[9b10b9-7-----9-10---10-9b10b9-9b10b9-7----7----9b10b9-------------12----12b--]
[---------------------------------------10------------------------------------]
[-----------------------------------------------------------------------------]
[-----------------------------------------------------------------------------]

[-------------------------8---------------------------------------------------]
[10-----10-----10--------------10---10-10-8-6--10-10-8-6--10-8-6----10-10-8-6-]
[---12b----12b-----7-9-10---12------------------------------------------------]
[-----------------------------------------------------------------------------]
[-----------------------------------------------------------------------------]
[-----------------------------------------------------------------------------]

[---------------------13p8-12p8-10p8--13p8-12p8-10p8--13p8-12p8-10p8--10b12p8-]
[-10-10-8-6--10-8-6-----------------------------------------------------------]
[-----------------------------------------------------------------------------]
[-----------------------------------------------------------------------------]
[---------------------\I am very unsure of this part, help me out if possible/]
[-----------------------------------------------------------------------------]
                                  Third/Final Chorus Intro
[-----15-----15-----15-----15-----|--------------------]
[-18b----18b----18b----18b----18~-|-------5--6---------]
[---------------------------------|-3--5--4--5---------]
[---------------------------------|-3--5--2--3--3-2----]
[---------------------------------|-1--3------------3--]
[---------------------------------|--------------------]
Comments