Anberlin - Paperthin Hymn Chords & Tabs

 

Paperthin Hymn Chords & Tabs

Anberlin Chords & Tabs

Version: 1 Type: Tab 0 ratings
1 star 2 stars 3 stars 4 stars 5 stars
comments

Paperthin Hymn Tab

   
This is like, one of my favourite songs, and noones posted it yet!! I dont believe it!
This is an awesome song to play, so have fun!!

Tabbed By: Julian Stevenson
Email: jaws_da_man@hotmail.com 

Words and Music by Anberlin
Arranged by Anberlin
 

Gtr I (D A D G B E) - 'Untitled'
Gtr II (D A D G B E) - 'Untitled'
Gtr III (D A D G B E) - 'Untitled'
Gtr IV (D A D G B E) - 'Untitled'


   Intro
    Q=177
    F5/C
   4/4
    Gtrs I, II
    E E E E E E E E   E E E E E E E E   E E E E E E E E   E E E E E E E E
||------------------|-----------------|-----------------|-------------------||
||o-6-6-6-6-6-6-6-6-|-6-6-6-6-6-6-6-6-|-6-6-6-6-6-6-6-6-|-6-6-6-6-6-6-6-6--o||
||--5-5-5-5-5-5-5-5-|-5-5-5-5-5-5-5-5-|-5-5-5-5-5-5-5-5-|-5-5-5-5-5-5-5-5---||
||------------------|-----------------|-----------------|-------------------||
||o-----------------|-----------------|-----------------|------------------o||
||------------------|-----------------|-----------------|-------------------||


    N.C.
    Gtrs III, IV
    E E E E E E E E   E E E E E E E E   E E E E E E E E   E E E E E E E E
||------------------|-----------------|-----------------|-------------------||
||o-----------------|-----------------|-----------------|------------------o||
||------------------|-----------------|-----------------|-------------------||
||--------------3-3-|-------------3-3-|-------5-5-5-----|-5-5-5-------5-5---||
||o-------0-0-0-----|-------0-0-0-----|-----------------|------------------o||
||--0-0-0-----------|-0-0-0-----------|-3-3-3-------3-3-|-------3-3-3-------||


   Verse
    F5/C
    Gtr I
    E E E E E E E E   E E E E E E E E   E E E E E E E E   E E E E E E E E
||------------------|-----------------|-----------------|-------------------||
||o-6-6-6-6-6-6-6-6-|-6-6-6-6-6-6-6-6-|-6-6-6-6-6-6-6-6-|-6-6-6-6-6-6-6-6--o||
||--5-5-5-5-5-5-5-5-|-5-5-5-5-5-5-5-5-|-5-5-5-5-5-5-5-5-|-5-5-5-5-5-5-5-5---||
||------------------|-----------------|-----------------|-------------------||
||o-----------------|-----------------|-----------------|------------------o||
||------------------|-----------------|-----------------|-------------------||


  F5/C
  E  E E E  E E E E    E  E E E E E E E
|-------------------|-------------------|
|-6--6-6-6--6-6-6-6-|--6--6-6-6-6-6-6-6-|
|-5--5-5-5--5-5-5-5-|--5--5-5-5-5-5-5-5-|
|-------------------|-------------------|
|-------------------|-------------------|
|-------------------|-------------------|
|
| Gtr II
| Q.     Q.     Q     +W
|---------------8---|-(8)---------------|
|--------6----------|-------------------|
|-7-----------------|-------------------|
|-------------------|-------------------|
|-------------------|-------------------|
|-------------------|-------------------|


  E  E E E  E E E E    E  E E E E E E E
|-------------------|-------------------|
|-6--6-6-6--6-6-6-6-|--6--6-6-6-6-6-6-6-|
|-5--5-5-5--5-5-5-5-|--5--5-5-5-5-5-5-5-|
|-------------------|-------------------|
|-------------------|-------------------|
|-------------------|-------------------|
|
| Q.     Q.     Q     +W
|---------------8---|-(8)---------------|
|--------6----------|-------------------|
|-7-----------------|-------------------|
|-------------------|-------------------|
|-------------------|-------------------|
|-------------------|-------------------|


  F5/C
  E E  E    E  E  E E E    E  E E E E E E E
|-----------------------|-------------------|
|-6-6--6----6--6--6-6-6-|--6--6-6-6-6-6-6-6-|
|-5-5--5----5--5--5-5-5-|--5--5-5-5-5-5-5-5-|
|-----------------------|-------------------|
|-----------------------|-------------------|
|-----------------------|-------------------|
|
| Q   +E    E +Q    Q     +W
|-----------------------|-------------------|
|-5---(5)b6r5-(5)-------|-------------------|
|-------------------5---|-(5)---------------|
|-----------------------|-------------------|
|-----------------------|-------------------|
|-----------------------|-------------------|


                        N.C.
                      Gtr III
  E  E E E  E E E E   E E E  E E E  E E
|-------------------|-------------------|
|-6--6-6-6--6-6-6-6-|-------------------|
|-5--5-5-5--5-5-5-5-|-------------------|
|-------------------|-------------------|
|-------------------|----------8-7------|
|-------------------|---7-8-10-----10-7-|
|
|                     Gtr IV
| Q.     Q.     Q     E E E  E E E  E E
|---------------8---|-------------------|
|--------6----------|-------------------|
|-7-----------------|-------------------|
|-------------------|-------------------|
|-------------------|----------8-7------|
|-------------------|---7-8-10-----10-7-|


 Pre-Chorus
  Csus4/Bb
  Gtrs III, IV
   E  E  E  E  E  E  E  E    E  E  E  E  E  E  E  E
|--8--8--8--8--8--8--8--8-|--8--8--8--8--8--8--8--8-|
|--8--8--8--8--8--8--8--8-|--8--8--8--8--8--8--8--8-|
|-10-10-10-10-10-10-10-10-|-10-10-10-10-10-10-10-10-|
|-10-10-10-10-10-10-10-10-|-10-10-10-10-10-10-10-10-|
|--8--8--8--8--8--8--8--8-|--8--8--8--8--8--8--8--8-|
|--8--8--8--8--8--8--8--8-|--8--8--8--8--8--8--8--8-|


  A5
   E  E  E  E  E  E  E  E    E  E  E  E  E  E  E  E
|-------------------------|-------------------------|
|-------------------------|-------------------------|
|-14-14-14-14-14-14-14-14-|-14-14-14-14-14-14-14-14-|
|-14-14-14-14-14-14-14-14-|-14-14-14-14-14-14-14-14-|
|-12-12-12-12-12-12-12-12-|-12-12-12-12-12-12-12-12-|
|-------------------------|-------------------------|


  F5
  E E E E E E E E   E E E E E E E E
|-----------------|-----------------|
|-----------------|-----------------|
|-----------------|-----------------|
|-3-3-3-3-3-3-3-3-|-3-3-3-3-3-3-3-3-|
|-3-3-3-3-3-3-3-3-|-3-3-3-3-3-3-3-3-|
|-3-3-3-3-3-3-3-3-|-3-3-3-3-3-3-3-3-|


  Bb5                 G5/C
   |--3--|  |--3--|    |--3--|
   Q  Q  Q  Q  Q  Q    Q  Q  Q S +S    +E   E E
|-------------------|---------------------------|
|-------------------|---------------------------|
|-10-10-10-10-10-10-|---------------------------|
|--8--8--8--8--8--8-|-12-12-12------------------|
|--8--8--8--8--8--8-|-10-10-10-7-(7)b8r(7)------|
|--8--8--8--8--8--8-|-10-10-10-------------10-7-|


   Chorus
    D5                                  C/E
    Gtr III
     E  E  E E E E  E  E    E  E  E E E E  E  E
||-----------------------|----------------------|
||o----------------------|----------------------|
||-----------------------|----------------------|
||---0--0--0-0-0-0--0--0-|--0--0--0-0-0-2--2--2-|
||o--0--0--0-0-0-0--0--0-|--0--0--0-0-0-3--3--3-|
||---0--0--0-0-0-0--0--0-|--0--0--0-0-0-2--2--2-|
|
|   Gtr IV
|    E  E  E E E E  E  E    E  E  E E E E  E  E
||-----------------------|----------------------|
||o----------------------|----------------------|
||--10-10-10-9-9-9-------|-10-10-10-9-9-9-------|
||-----------------10-10-|----------------10-10-|
||o----------------------|----------------------|
||-----------------------|----------------------|


  F5                                  F/A
   E  E  E E E E  E  E    E  E  E E E E  E  E
|----------------------|-----------------------|
|----------------------|-----------------------|
|----------------------|-----------------------|
|--3--3--3-3-3-3--3--3-|--3--3--3-3-3-7--7--7--|
|--3--3--3-3-3-3--3--3-|--3--3--3-3-3-8--8--8--|
|--3--3--3-3-3-3--3--3-|--3--3--3-3-3-7--7--7--|
|
|  E  E  E E E E  E  E    E  E  E E E E  E  E
|----------------------|-----------------------|
|----------------------|-----------------------|
|-10-10-10-9-9-9-------|-10-10-10-9-9-9--------|
|----------------10-10-|----------------10-10--|
|----------------------|-----------------------|
|----------------------|-----------------------|


  Bb5                                 D5
   E  E  E E E E  E  E    E  E  E E E  E  E  E
|----------------------|-----------------------|
|----------------------|-----------------------|
|----------------------|-----------------------|
|--8--8--8-8-8-8--8--8-|--8--8--8-8-8-12-12-12-|
|--8--8--8-8-8-8--8--8-|--8--8--8-8-8-12-12-12-|
|--8--8--8-8-8-8--8--8-|--8--8--8-8-8-12-12-12-|
|
|  E  E  E E E E  E  E    E  E  E E E  E  E  E
|----------------------|-----------------------|
|----------------------|-----------------------|
|-10-10-10-9-9-9-------|-10-10-10-9-9--9-------|
|----------------10-10-|-----------------10-10-|
|----------------------|-----------------------|
|----------------------|-----------------------|


  C5                                    F5
   E  E  E  E  E  E  E  E    E  E  E  E  E  E  E  E
|-------------------------|--------------------------||
|-------------------------|-------------------------o||
|-12-12-12-12-12-12-12-12-|-12-12-12-12--------------||
|-10-10-10-10-10-10-10-10-|-10-10-10-10--3--3--3--3--||
|-10-10-10-10-10-10-10-10-|-10-10-10-10--3--3--3--3-o||
|-10-10-10-10-10-10-10-10-|-10-10-10-10--3--3--3--3--||
|
|  E  E  E  E  E  E  E  E    E  E  E  E  E  E  E  E
|-------------------------|--------------------------||
|-------------------------|-------------------------o||
|-12-12-12-10-10-10-------|-12-12-12-10-10-10--------||
|-------------------10-10-|-------------------10-10--||
|-------------------------|-------------------------o||
|-------------------------|--------------------------||


  D5
  W
|-------------------------------------------|
|-------------------------------------------|
|-------------------------------------------|
|-0-----------------------------------------|
|-0-----------------------------------------|
|-0-----------------------------------------|
|
| E +E     +E  +E     +E  +E     +E  +E
|-------------------------------------------|
|-------------------------------------------|
|-9-(9)b10r(9)-(9)b10r(9)-(9)b10r(9)-(9)b10r|
|-------------------------------------------|
|-------------------------------------------|
|-------------------------------------------|


  +Q          q          E   E      Q
|---------------------------------------------|
|---------------------------------------------|
|---------------------------------------------|
|-(0)-----------------------------------------|
|-(0)-----------------------------------------|
|-(0)--------<6>------------<6>---------------|
|
| +E  +E     +E  +E     +E  +E     +E  +E
|---------------------------------------------|
|---------------------------------------------|
|-(9)-(9)b10r(9)-(9)b10r(9)-(9)b10r(9)-(9)b10-|
|---------------------------------------------|
|---------------------------------------------|
|---------------------------------------------|


   Verse
    F5/C
    Gtr I
    E  E E E  E E E E    E  E E E E E E E
||--------------------|-------------------|
||o-6--6-6-6--6-6-6-6-|--6--6-6-6-6-6-6-6-|
||--5--5-5-5--5-5-5-5-|--5--5-5-5-5-5-5-5-|
||--------------------|-------------------|
||o-------------------|-------------------|
||--------------------|-------------------|
|
|   Gtr II
|   Q.     Q.     Q     +W
||----------------8---|-(8)---------------|
||o--------6----------|-------------------|
||--7-----------------|-------------------|
||--------------------|-------------------|
||o-------------------|-------------------|
||--------------------|-------------------|


  E  E E E  E E E E    E  E E E E E E E
|-------------------|--------------------|
|-6--6-6-6--6-6-6-6-|--6--6-6-6-6-6-6-6--|
|-5--5-5-5--5-5-5-5-|--5--5-5-5-5-5-5-5--|
|-------------------|--------------------|
|-------------------|--------------------|
|-------------------|--------------------|
|
| Q.     Q.     Q     +W
|---------------8---|-(8)----------------|
|--------6----------|--------------------|
|-7-----------------|--------------------|
|-------------------|--------------------|
|-------------------|--------------------|
|-------------------|--------------------|


  F5/C
  E E  E    E  E  E E E    E  E E E E E E E
|-----------------------|-------------------|
|-6-6--6----6--6--6-6-6-|--6--6-6-6-6-6-6-6-|
|-5-5--5----5--5--5-5-5-|--5--5-5-5-5-5-5-5-|
|-----------------------|-------------------|
|-----------------------|-------------------|
|-----------------------|-------------------|
|
| Q   +E    E +Q    Q     +W
|-----------------------|-------------------|
|-5---(5)b6r5-(5)-------|-------------------|
|-------------------5---|-(5)---------------|
|-----------------------|-------------------|
|-----------------------|-------------------|
|-----------------------|-------------------|


  E  E E E  E E E E    E  E E E E E E E
|-------------------|--------------------||
|-6--6-6-6--6-6-6-6-|--6--6-6-6-6-6-6-6-o||
|-5--5-5-5--5-5-5-5-|--5--5-5-5-5-5-5-5--||
|-------------------|--------------------||
|-------------------|-------------------o||
|-------------------|--------------------||
|
| Q.     Q.     Q     +W
|---------------8---|-(8)----------------||
|--------6----------|-------------------o||
|-7-----------------|--------------------||
|-------------------|--------------------||
|-------------------|-------------------o||
|-------------------|--------------------||


  Dsus2      F/A          F5/Bb       C5/G

  Gtr III
  W           W            W           H    H
|----------|------------|-----------|------------|
|----------|------------|-----------|------------|
|-9--------|------------|-----------|------------|
|-0--------|-10---------|-10--------|-10---------|
|-0--------|--8---------|--8--------|-10---------|
|-0--------|--7---------|--8--------|------------|
|
| Gtr IV
| W           W            W           H    H
|----------|------------|-----------|------------|
|----------|------------|-----------|------------|
|-9--------|--5---------|-----------|------------|
|-0--------|-(0)--------|-10--------|--2---------|
|-0--------|-(0)--------|--8--------|--3---------|
|-0--------|-(0)--------|--8--------|--2---------|


 Pre-Chorus
  Csus4/Bb
  Gtrs III, IV
   E  E  E  E  E  E  E  E    E  E  E  E  E  E  E  E
|--8--8--8--8--8--8--8--8-|--8--8--8--8--8--8--8--8-|
|--8--8--8--8--8--8--8--8-|--8--8--8--8--8--8--8--8-|
|-10-10-10-10-10-10-10-10-|-10-10-10-10-10-10-10-10-|
|-10-10-10-10-10-10-10-10-|-10-10-10-10-10-10-10-10-|
|--8--8--8--8--8--8--8--8-|--8--8--8--8--8--8--8--8-|
|--8--8--8--8--8--8--8--8-|--8--8--8--8--8--8--8--8-|


  A5
   E  E  E  E  E  E  E  E    E  E  E  E  E  E  E  E
|-------------------------|-------------------------|
|-------------------------|-------------------------|
|-14-14-14-14-14-14-14-14-|-14-14-14-14-14-14-14-14-|
|-14-14-14-14-14-14-14-14-|-14-14-14-14-14-14-14-14-|
|-12-12-12-12-12-12-12-12-|-12-12-12-12-12-12-12-12-|
|-------------------------|-------------------------|


  F5                                  N.C.
                                        PM|   PM|   PM     PM|    PM|    PM
  E E E E E E E E   E E E E E E E E   E E E E E E E E    E E E  E E E  E E
|-----------------|-----------------|-----------------|--------------------|
|-----------------|-----------------|-----------------|--------------------|
|-----------------|-----------------|-9-----9-----9---|-10-----10-----10---|
|-3-3-3-3-3-3-3-3-|-3-3-3-3-3-3-3-3-|---7-7---7-7---7-|----7-7----7-7----7-|
|-3-3-3-3-3-3-3-3-|-3-3-3-3-3-3-3-3-|-----------------|--------------------|
|-3-3-3-3-3-3-3-3-|-3-3-3-3-3-3-3-3-|-----------------|--------------------|


   Chorus
    D5                                  C/E
     E  E  E E E E  E  E    E  E  E E E E  E  E
||-----------------------|----------------------|
||o----------------------|----------------------|
||-----------------------|----------------------|
||---0--0--0-0-0-0--0--0-|--0--0--0-0-0-2--2--2-|
||o--0--0--0-0-0-0--0--0-|--0--0--0-0-0-3--3--3-|
||---0--0--0-0-0-0--0--0-|--0--0--0-0-0-2--2--2-|
|
|   Gtr IV
|    E  E  E E E E  E  E    E  E  E E E E  E  E
||-----------------------|----------------------|
||o----------------------|----------------------|
||--10-10-10-9-9-9-------|-10-10-10-9-9-9-------|
||-----------------10-10-|----------------10-10-|
||o----------------------|----------------------|
||-----------------------|----------------------|

[ Tab from: http://www.guitartabs.cc/tabs/a/anberlin/paperthin_hymn_tab.html ]
  F5                                  F/A
   E  E  E E E E  E  E    E  E  E E E E  E  E
|----------------------|-----------------------|
|----------------------|-----------------------|
|----------------------|-----------------------|
|--3--3--3-3-3-3--3--3-|--3--3--3-3-3-7--7--7--|
|--3--3--3-3-3-3--3--3-|--3--3--3-3-3-8--8--8--|
|--3--3--3-3-3-3--3--3-|--3--3--3-3-3-7--7--7--|
|
|  E  E  E E E E  E  E    E  E  E E E E  E  E
|----------------------|-----------------------|
|----------------------|-----------------------|
|-10-10-10-9-9-9-------|-10-10-10-9-9-9--------|
|----------------10-10-|----------------10-10--|
|----------------------|-----------------------|
|----------------------|-----------------------|


  Bb5                                 D5         C5
   E  E  E E E E  E  E    E  E  E E E  E  E  E    E  E  E  E  E  E  E  E
|----------------------|-----------------------|-------------------------|
|----------------------|-----------------------|-------------------------|
|----------------------|-----------------------|-12-12-12-12-12-12-12-12-|
|--8--8--8-8-8-8--8--8-|--8--8--8-8-8-12-12-12-|-10-10-10-10-10-10-10-10-|
|--8--8--8-8-8-8--8--8-|--8--8--8-8-8-12-12-12-|-10-10-10-10-10-10-10-10-|
|--8--8--8-8-8-8--8--8-|--8--8--8-8-8-12-12-12-|-10-10-10-10-10-10-10-10-|
|
|  E  E  E E E E  E  E    E  E  E E E  E  E  E    E  E  E  E  E  E  E  E
|----------------------|-----------------------|-------------------------|
|----------------------|-----------------------|-------------------------|
|-10-10-10-9-9-9-------|-10-10-10-9-9--9-------|-12-12-12-10-10-10-------|
|----------------10-10-|-----------------10-10-|-------------------10-10-|
|----------------------|-----------------------|-------------------------|
|----------------------|-----------------------|-------------------------|


 1.                          2.
              F5              C5          F/A
   E  E  E  E  E  E  E  E      E  E  E  E  E  E  E  E
|--------------------------||-------------------------|
|-------------------------o||-------------------------|
|-12-12-12-12--------------||-12-12-12-12-------------|
|-10-10-10-10--3--3--3--3--||-10-10-10-10-10-10-10-10-|
|-10-10-10-10--3--3--3--3-o||-10-10-10-10--8--8--8--8-|
|-10-10-10-10--3--3--3--3--||-10-10-10-10--7--7--7--7-|
|
|  E  E  E  E  E  E  E  E      E  E  E  E  E  E  E  E
|--------------------------||-------------------------|
|-------------------------o||-------------------------|
|-12-12-12-10-10-10--------||-12-12-12-10-10-10-------|
|-------------------10-10--||-------------------10-10-|
|-------------------------o||-------------------------|
|--------------------------||-------------------------|


  Bb5
   E  E  E E E E  E  E    E  E  E E E E  E  E
|----------------------|----------------------|
|----------------------|----------------------|
|----------------------|----------------------|
|--8--8--8-8-8-8--8--8-|--8--8--8-8-8-8--8--8-|
|--8--8--8-8-8-8--8--8-|--8--8--8-8-8-8--8--8-|
|--8--8--8-8-8-8--8--8-|--8--8--8-8-8-8--8--8-|
|
|  E  E  E E E E  E  E    E  E  E E E E  E  E
|----------------------|----------------------|
|----------------------|----------------------|
|-10-10-10-9-9-9-------|-10-10-10-9-9-9-------|
|----------------10-10-|----------------10-10-|
|----------------------|----------------------|
|----------------------|----------------------|


  N.C.
    E    E    E    E    E    E    E    E      E    E    E    E    H
|-----------------------------------------|-----------------------------------------|
|-----------------------------------------|-----------------------------------------|
|-----------------------------------------|-----------------------------------------|
|-----------------------------------------|-----------------------------------------|
|-----------------------------------------|-----------------------------------------|
|--10---10---10----0----0----0---10---10--|--10----0----0----0---10\----------------|
|
|   E    E    E    E    E    E    E    E      E    E    E    E    E    E    E    E
|-----------------------------------------|-----------------------------------------|
|-(10)-(10)-(10)-(10)-(10)-(10)-(10)-(10)-|-(10)-(10)-(10)-(10)-(10)-(10)-(10)-(10)-|
|-----------------------------------------|-----------------------------------------|
|-----------------------------------------|-----------------------------------------|
|-----------------------------------------|-----------------------------------------|
|-----------------------------------------|-----------------------------------------|


   Interlude
    N.C.
    Gtrs III, IV
    E E E E E E E E   E E E E E E E E   E E E E E E E E   E E E E E E E E   3x
||------------------|-----------------|-----------------|-------------------||
||o-----------------|-----------------|-----------------|------------------o||
||------------------|-----------------|-----------------|-------------------||
||--------------3-3-|-------------3-3-|-------5-5-5-----|-5-5-5-------5-5---||
||o-------0-0-0-----|-------0-0-0-----|-----------------|------------------o||
||--0-0-0-----------|-0-0-0-----------|-3-3-3-------3-3-|-------3-3-3-------||


  Bb5
   E  E  E  E  E  E  E  E    E  E  E  E  E  E  E  E
|-------------------------|-------------------------|
|-------------------------|-------------------------|
|-10-10-10-10-10-10-10-10-|-10-10-10-10-10-10-10-10-|
|--8--8--8--8--8--8--8--8-|--8--8--8--8--8--8--8--8-|
|--8--8--8--8--8--8--8--8-|--8--8--8--8--8--8--8--8-|
|--8--8--8--8--8--8--8--8-|--8--8--8--8--8--8--8--8-|
|
| Gtr IV
|  E  E  E  E  E  E  E  E    E  E  E  E  E  E  E  E
|-------------------------|-------------------------|
|-------------------------|-------------------------|
|-10-10-10--9--9--9-------|-10-10-10--9--9--9-------|
|-------------------10-10-|-------------------10-10-|
|-------------------------|-------------------------|
|-------------------------|-------------------------|


  C5/G                                 F5
   E  E  E  E  E  E  E  E    E  E  E E E E E E
|-------------------------|--------------------|
|-------------------------|--------------------|
|--5--5--5--5--5--5--5--5-|--5--5--5-----------|
|--5--5--5--5--5--5--5--5-|--5--5--5---3-3-3-3-|
|--3--3--3--3--3--3--3--3-|--3--3--3---3-3-3-3-|
|--5--5--5--5--5--5--5--5-|--5--5--5---3-3-3-3-|
|
|  E  E  E  E  E  E  E  E    E  E  E E E E E E
|-------------------------|--------------------|
|-------------------------|--------------------|
|-14-14-14-14-14-14-14-14-|-14-14-14-----------|
|-12-12-12-12-12-12-12-12-|-12-12-12---3-3-3-3-|
|-12-12-12-12-12-12-12-12-|-12-12-12---3-3-3-3-|
|-------------------------|------------3-3-3-3-|


 Chorus
  N.C.              Bb5
  E E E E E E E E   E E E E E E E E    E  E E E E E E E    E  E E E E E E E
|-----------------|-----------------|-------------------|-------------------|
|-----------------|-----------------|-------------------|-------------------|
|-----------------|-----------------|-------------------|-------------------|
|-------------3-3-|-------------3-3-|---------5-5-5-----|--5--5-5-------5-5-|
|-------0-0-0-----|-------0-0-0-----|-------------------|-------------------|
|-0-0-0-----------|-0-0-0-----------|--3--3-3-------3-3-|---------3-3-3-----|
|
|                   <
| W                 W                 +W                  +W
|-----------------|-----------------|-------------------|-------------------|
|-----------------|-----------------|-------------------|-------------------|
|-----------------|-----------------|-------------------|-------------------|
|-----------------|-8---------------|-(8)---------------|-(8)---------------|
|-----------------|-8---------------|-(8)---------------|-(8)---------------|
|-----------------|-8---------------|-(8)---------------|-(8)---------------|


  Bb5                                 D5
   E  E  E E E E  E  E    E  E  E E E  E  E  E
|----------------------|-----------------------|
|----------------------|-----------------------|
|----------------------|-----------------------|
|--8--8--8-8-8-8--8--8-|--8--8--8-8-8-12-12-12-|
|--8--8--8-8-8-8--8--8-|--8--8--8-8-8-12-12-12-|
|--8--8--8-8-8-8--8--8-|--8--8--8-8-8-12-12-12-|
|
|  E  E  E E E E  E  E    E  E  E E E  E  E  E
|----------------------|-----------------------|
|----------------------|-----------------------|
|-10-10-10-9-9-9-------|-10-10-10-9-9--9-------|
|----------------10-10-|-----------------10-10-|
|----------------------|-----------------------|
|----------------------|-----------------------|


  C5                                    F5
   E  E  E  E  E  E  E  E    E  E  E  E  E  E  E  E
|-------------------------|-------------------------|
|-------------------------|-------------------------|
|-12-12-12-12-12-12-12-12-|-12-12-12-12-------------|
|-10-10-10-10-10-10-10-10-|-10-10-10-10--3--3--3--3-|
|-10-10-10-10-10-10-10-10-|-10-10-10-10--3--3--3--3-|
|-10-10-10-10-10-10-10-10-|-10-10-10-10--3--3--3--3-|
|
|  E  E  E  E  E  E  E  E    E  E  E  E  E  E  E  E
|-------------------------|-------------------------|
|-------------------------|-------------------------|
|-12-12-12-10-10-10-------|-12-12-12-10-10-10-------|
|-------------------10-10-|-------------------10-10-|
|-------------------------|-------------------------|
|-------------------------|-------------------------|


  D5                                  C/E
   E  E  E E E E  E  E    E  E  E E E E  E  E
|----------------------|----------------------|
|----------------------|----------------------|
|----------------------|----------------------|
|--0--0--0-0-0-0--0--0-|--0--0--0-0-0-2--2--2-|
|--0--0--0-0-0-0--0--0-|--0--0--0-0-0-3--3--3-|
|--0--0--0-0-0-0--0--0-|--0--0--0-0-0-2--2--2-|
|
|  E  E  E E E E  E  E    E  E  E E E E  E  E
|----------------------|----------------------|
|----------------------|----------------------|
|-10-10-10-9-9-9-------|-10-10-10-9-9-9-------|
|----------------10-10-|----------------10-10-|
|----------------------|----------------------|
|----------------------|----------------------|


  F5                                  F/A
   E  E  E E E E  E  E    E  E  E E E E  E  E
|----------------------|----------------------|
|----------------------|----------------------|
|----------------------|----------------------|
|--3--3--3-3-3-3--3--3-|--3--3--3-3-3-7--7--7-|
|--3--3--3-3-3-3--3--3-|--3--3--3-3-3-8--8--8-|
|--3--3--3-3-3-3--3--3-|--3--3--3-3-3-7--7--7-|
|
|  E  E  E E E E  E  E    E  E  E E E E  E  E
|----------------------|----------------------|
|----------------------|----------------------|
|-10-10-10-9-9-9-------|-10-10-10-9-9-9-------|
|----------------10-10-|----------------10-10-|
|----------------------|----------------------|
|----------------------|----------------------|


  Bb5                                 D5
   E  E  E E E E  E  E    E  E  E E E  E  E  E
|----------------------|-----------------------|
|----------------------|-----------------------|
|----------------------|-----------------------|
|--8--8--8-8-8-8--8--8-|--8--8--8-8-8-12-12-12-|
|--8--8--8-8-8-8--8--8-|--8--8--8-8-8-12-12-12-|
|--8--8--8-8-8-8--8--8-|--8--8--8-8-8-12-12-12-|
|
|  E  E  E E E E  E  E    E  E  E E E  E  E  E
|----------------------|-----------------------|
|----------------------|-----------------------|
|-10-10-10-9-9-9-------|-10-10-10-9-9--9-------|
|----------------10-10-|-----------------10-10-|
|----------------------|-----------------------|
|----------------------|-----------------------|


  C5
   E  E  E  E  E  E  E  E    E  E  E  E H
|-------------------------|------------------|
|-------------------------|------------------|
|-12-12-12-12-12-12-12-12-|-12-12-12-12------|
|-10-10-10-10-10-10-10-10-|-10-10-10-10------|
|-10-10-10-10-10-10-10-10-|-10-10-10-10------|
|-10-10-10-10-10-10-10-10-|-10-10-10-10------|
|
|  E  E  E  E  E  E  E  E    E  E  E  E H
|-------------------------|------------------|
|-------------------------|------------------|
|-12-12-12-10-10-10-------|-12-12-12---------|
|-------------------10-10-|------------------|
|-------------------------|------------------|
|-------------------------|------------------|


  Bb5
   E  E  E E E E  E  E    E  E  E E E E  E  E
|----------------------|----------------------|
|----------------------|----------------------|
|----------------------|----------------------|
|--8--8--8-8-8-8--8--8-|--8--8--8-8-8-8--8--8-|
|--8--8--8-8-8-8--8--8-|--8--8--8-8-8-8--8--8-|
|--8--8--8-8-8-8--8--8-|--8--8--8-8-8-8--8--8-|
|
|  E  E  E E E E  E  E    E  E  E E E E  E  E
|----------------------|----------------------|
|----------------------|----------------------|
|-10-10-10-9-9-9-------|-10-10-10-9-9-9-------|
|----------------10-10-|----------------10-10-|
|----------------------|----------------------|
|----------------------|----------------------|


  C5                                    F/A
   E  E  E  E  E  E  E  E    E  E  E  E  E  E  E  E
|-------------------------|-------------------------|
|-------------------------|-------------------------|
|-------------------------|-------------------------|
|-10-10-10-10-10-10-10-10-|-10-10-10-10--7--7--7--7-|
|-10-10-10-10-10-10-10-10-|-10-10-10-10--8--8--8--8-|
|-10-10-10-10-10-10-10-10-|-10-10-10-10--7--7--7--7-|
|
|  E  E  E  E  E  E  E  E    E  E  E  E  E  E  E  E
|-------------------------|-------------------------|
|-------------------------|-------------------------|
|-12-12-12-10-10-10-------|-12-12-12-10-10-10-------|
|-------------------10-10-|-------------------10-10-|
|-------------------------|-------------------------|
|-------------------------|-------------------------|


  Bb5
   E  E  E E E E  E  E    E  E  E E E E  E  E
|----------------------|----------------------|
|----------------------|----------------------|
|----------------------|----------------------|
|--8--8--8-8-8-8--8--8-|--8--8--8-8-8-8--8--8-|
|--8--8--8-8-8-8--8--8-|--8--8--8-8-8-8--8--8-|
|--8--8--8-8-8-8--8--8-|--8--8--8-8-8-8--8--8-|
|
|  E  E  E E E E  E  E    E  E  E E E E  E  E
|----------------------|----------------------|
|----------------------|----------------------|
|-10-10-10-9-9-9-------|-10-10-10-9-9-9-------|
|----------------10-10-|----------------10-10-|
|----------------------|----------------------|
|----------------------|----------------------|


  Bb5                 G5/C
   |--3--|  |--3--|    |--3--|
   Q  Q  Q  Q  Q  Q    Q  Q  Q  q     Q
|-------------------|---------------------*|
|-------------------|---------------------*|
|-10-10-10-10-10-10-|---------------------*|
|--8--8--8--8--8--8-|-12-12-12-12---------*|
|--8--8--8--8--8--8-|-10-10-10-10---------*|
|--8--8--8--8--8--8-|-10-10-10-10---------*|
|
|  |--3--|  |--3--|    |--3--|
|  Q  Q  Q  Q  Q  Q    Q  Q  Q  E  E  q
|-------------------|---------------------*|
|-------------------|---------------------*|
|-------------------|---------------------*|
|-10-10-10-10-10-10-|-10-10-10-10-10-10---*|
|-------------------|---------------------*|
|-------------------|---------------------*|




--------------------------------------------------------------------------------


Duration Legend
---------------
W - whole; H - half; Q - quarter; E - 8th; S - 16th; T - 32nd; X - 64th; a - acciaccatura
+ - note tied to previous; . - note dotted; .. - note double dotted
Uncapitalized letters represent notes that are staccato (1/2 duration)
Irregular groupings are notated above the duration line
Duration letters will always appear directly above the note/fret number it represents the
duration for.  Duration letters with no fret number below them represent rests.  Multi-
bar rests are notated in the form Wxn, where n is the number of bars to rest for.  Low
melody durations appear below the staff

Tablature Legend
----------------
 h   - hammer-on
 p   - pull-off
 b   - bend
 pb  - pre-bend
 r   - bend release (if no number after the r, then release immediately)
 /\  - slide into or out of (from/to "nowhere")
 s   - legato slide
 S   - shift slide
 - natural harmonic
[n]  - artificial harmonic
n(n) - tapped harmonic
 ~   - vibrato
 tr  - trill
 T   - tap
 TP  - trem. picking
 PM  - palm muting
\n/  - tremolo bar dip; n = amount to dip
 \n  - tremolo bar down
 n/  - tremolo bar up
/n\  - tremolo bar inverted dip
 =   - hold bend; also acts as connecting device for hammers/pulls
 <> - volume swell (louder/softer)
 x   - on rhythm slash represents muted slash
 o   - on rhythm slash represents single note slash

Misc Legend
-----------
 |  - bar
||  - double bar
||o - repeat start
o|| - repeat end
*|  - double bar (ending)
 :  - bar (freetime)
 $  - Segno
 &  - Coda
Tempo markers -  = BPM(8/16=s8/s16), where s8 = swing 8ths, s16 = swing 16ths

Its pretty massive, but its an awesome song to jam around with.
Have fun, and keep rockin!!
Comments