Anberlin - Never Take Friendship Personal Chords & Tabs

 

Never Take Friendship Personal Chords & Tabs

Anberlin Chords & Tabs

Version: 1 Type: Tab 0 ratings
1 star 2 stars 3 stars 4 stars 5 stars
comments

Never Take Friendship Personal Tab

   
Here's the COMPLETE tab for an extremely awsome song. So complete, there is parts
included for a 3rd guitar that was on the cd version. Enjoi!

---------------------------------------------------------------------------------------
Guitar One - Right Speaker
---------------------------------------------------------------------------------------

Intro - (Come in after 4 beats)
e|-----------------|
 |-----------------|
 |-----------------|
 |-777-777-777-777-|
 |-777-777-777-777-|
D|-777-777-777-777-|

Intro Cont.
e|--------------------------------------------------------------------------------------|
|---------------------------------------------------------------------------------------|
|------------------------------------------------------------------------------999999---|
|-777-777-777-777-777-777-777-777-333-333-333-333-000-000-000-000-777777777777-777777---|
|-777-777-777-777-777-777-777-777-333-333-333-333-000-000-000-000-777777777777-777777---|
D|-777-777-777-777-777-777-777-777-333-333-333-333-000-000-000-000-777777777777-777777--|

Intro Cont.
e|----------------------------------------|
 |----------------------------------------|
 |-101010101010--------------777777777777-|
 |-7-7-7-7-7-7--333333333333-000000000000-|
 |-7-7-7-7-7-7--333333333333-000000000000-|
D|-7-7-7-7-7-7--333333333333-000000000000-|


Verse - "There's a hatchet got a knife..."
e|--------------------------------------------------------------------------------------|
|---------------------------------------------------------------------------------------|
|-----------7-9--7--5~-2~---------777-777-777-777-555-555-555-555-555-555-555-555-777---|
|-----------x-x--x--x~-2~----xxxx-777-777-777-777-777-777-777-777-555-555-555-555-777---|
|-----------5/7--5--3~-0~----xxxx-------------------------------------------------------|
D|----------------------------xxxx------------------------------------------------------|

Verse Cont.
e|------------------------------------------|
 |---------------This part has some effect--|
 |-777-777-777----555-555-555-555-----------|
 |-777-777-777----555-555555-555------------|
 |------------------------------------------|
D|------------------------------------------|


Chorus - "Innocence gone, Never take friendship personal..." (X2)
e|-------------------------------------------------------------|
 |-------------------------------------------------------------|
 |-------------------------------------------------------------|
 |-7777777777777777-9999999999-333333333333333-000000000000000-|
 |-7777777777777777-7777777777-333333333333333-000000000000000-|
D|-7777777777777777-7777777777-333333333333333-000000000000000-|


Verse 2 - "Once a skeptic, now the critic..."
e|-----------------------------------------------------------------|
 |-----------------------------------------------------------------|
 |-----------------------------------------------------------------|
 |-777-777-777-777-777-777-777-777-333-333-333-333-000-000-000-000-|
 |-777-777-777-777-777-777-777-777-333-333-333-333-000-000-000-000-|
D|-777-777-777-777-777-777-777-777-333-333-333-333-000-000-000-000-|

Verse 2 Cont.
e|-----------------------------------------------------------------|
 |-----------------------------------------------------------------|
 |-777-777-777-777-555-555-555-555-555-555-555-555-777-777-777-777-|
 |-777-777-777-777-777-777-777-777-555-555-555-555-777-777-777-777-|
 |-----------------------------------------------------------------|
D|-----------------------------------------------------------------|


Pause "Fame, fame, fame..."

Repeat Chorus

Bridge
e|------------------------------------------------------------------------------------|
 |------------------------------------------------------------------------------------|
 |-9~--------7~--9~-----------------55555555-7777-9999--44444444-5555-4444--55555555--|
|-7~----3~--0~--7~----3~--------00-xxxxxxxx-xxxx-xxxx--xxxxxxxx-xxxx-xxxx--xxxxxxxx---|
|-7~----3~--0~--7~----3~--00000-00-33333333-5555-7777--22222222-3333-2222--33333333---|
D|-7~----3~--0~--7~----3~--00000-00---------------------------------------------------|
PM                         .....

Bridge Cont.
e|-------------------------------------------------------------------------------------|
|--------------------------------------------------------------------------------------|
|-7777-9999--444-555-22222--55555555-7777-9999--44444444-5555-7777--7-9999999-121212---|
|-xxxx-xxxx--xxx-xxx-22222--xxxxxxxx-xxxx-xxxx--xxxxxxxx-xxxx-xxxx--x-xxxxxxx-x-x-x----|
|-5555-7777--222-333-00000--33333333-5555-7777--22222222-3333-5555--5/7777777-101010---|
D|-------------------------------------------------------------------------------------|

Bridge Cont.
e|----------------|
 |----------------|
 |-121212------2~-|It's hard to hear, but to be exact
 |-x-x-x-------2~-|just bend the neck of your guitar
 |-101010------0~-|during the ringing chord to get
D|----------------|the sound right.

Pause - "Life has no reason, Life has no purpose..."
Play Chorus X1
[ Tab from: http://www.guitartabs.cc/tabs/a/anberlin/never_take_friendship_personal_tab.html ]
Last Part - (X4)
e|----------15----------------------------------------------|
 |-------13----------15-17-(X3)then-------13-12-------12-13-|
 |-14-14-------14-14----------------14-14-------14-14-------|
 |----------------------------------------------------------|
 |----------------------------------------------------------|
D|----------------------------------------------------------|

End - Full Bends
e|-12-----12-----12-----|
 |-15(17)-15(17)-15(17)-|
 |----------------------|
 |----------------------|
 |----------------------|
D|----------------------|

----------------------------------------------------------------------------------------
Guitar Two
----------------------------------------------------------------------------------------

Intro
e|---------------------------------|
 |---------------------------------|
 |---------------------------------|
 |-777-777-777-777-777-777-777-777-|
 |-777-777-777-777-777-777-777-777-|
D|-777-777-777-777-777-777-777-777-|

Intro Cont. (X4)
e|------------------------------------------|
 |-------8----------------------------------|
 |-----7-------7-9-(X3)then-----5-4-----4-5-|
 |-7-7-----7-7--------------7-7-----7-7-----|
 |------------------------------------------|
D|------------------------------------------|


Verse
e|-----------------------------------------------------------------|
 |-----------------------------------------------------------------|
 |-----------------------------------------------------------------|
 |-777-777-777-777-777-777-777-777-333-333-333-333-000-000-000-000-|
 |-777-777-777-777-777-777-777-777-333-333-333-333-000-000-000-000-|
D|-777-777-777-777-777-777-777-777-333-333-333-333-000-000-000-000-|

Verse Cont.
e|-----------------------------------------------------------------|
 |-----------------------------------------------------------------|
 |-777-777-777-777-555-555-555-555-555-555-555-555-777-777-777-777-|
 |-777-777-777-777-777-777-777-777-555-555-555-555-777-777-777-777-|
 |----0---0---0---0---0---0---0---0---0---0---0---0---0---0---0----|
D|-----------------------------------------------------------------|


Chorus - "Innocence gone, never take friendship personal..."
e|-----------------------------------------------------------------------------|
|-----------------------------------------8------------------------------------|
|-t7p4-(X16)-t9p4(X8)-t7p4(X8)----------7-------7-9-(X3)then-----5-4-----4-5---|
|-----------------------------------7-7-----7-7--------------7-7-----7-7-------|
|------------------------------------------------------------------------------|
D|-----------------------------------------------------------------------------|

Chorus Cont.
e|------------------------------------------|
 |-------8----------------------------------|
 |-----7-------7-9-(X3)then-----5-4-----4-5-|
 |-7-7-----7-7--------------7-7-----7-7-----|
 |------------------------------------------|
D|------------------------------------------|

Repeat Verse

Pre-Chorus Thing - Only Distortion
e|-----------------|
 |-----------------|
 |-555-555-555-555-|
 |-555-555-555-555-|
 |-----------------|
D|-----------------|

Repeat Chorus

Bridge
e|----------------------------------------------------------------------|
 |----------------------------------------------------------------------|
 |-9~------------9~----------------99999999-77777777-99999999-----------|
 |-7~----3~--0~--7~----3~-00000-00-77777777-55555555-77777777-2222-3333-|
 |-7~----3~--0~--7~----3~-00000-00-77777777-55555555-77777777-2222-3333-|
D|-7~----3~--0~--7~----3~-00000-00-77777777-55555555-77777777-2222-3333-|
PM                        .....

Bridge Cont.                   "Life has no reason, life has no purpose"
e|----------------------------|---------------------------------------|
 |----------------------------|---------------------------------------|
 |-99999999-77777777-55555555-|-t7p4-(X4)-t9p4(X4)-t7p4-(X4)-t9p4(X4)-|
 |-77777777-55555555-33333333-|---------------------------------------|
 |-77777777-55555555-33333333-|---------------------------------------|
D|-77777777-55555555-33333333-|---------------------------------------|

Repeat Chorus

Ending - Im not sure about this but if u listen closely he just plays with this chord.
e|-12------
 |-15b(17)-
 |---------|
 |---------|
 |---------|
D|---------|


----------------------------------------------------------------------------------------
Guitar Three
----------------------------------------------------------------------------------------

Intro - (Come in after 4 beats)
e|----------15----------------------------------------------|
 |-------13----------15-17-(X3)then-------13-12-------12-13-|
 |-14-14-------14-14----------------14-14-------14-14-------|
 |----------------------------------------------------------|
 |----------------------------------------------------------|
D|----------------------------------------------------------|

The 3rd guitar also plays this riff throughout the song whenever guitar 2 plays the
lower harmonized vesion. The 3rd guitar also plays the same basic chords as the 2nd
guitar for the verse.

And for the ending, the 3rd guitar finishes the song playing the same chords as guitar
ones chorus, while guitar one plays guitar 3's riff. Confusing? :S

Fun song from an awsome band. Check out www.purevolume.com/thefullydown to hear their
friends band.
Comments