Anberlin - Glass To The Arson Chords & Tabs

 

Glass To The Arson Chords & Tabs

Anberlin Chords & Tabs

Version: 2 Type: Tab 0 ratings
1 star 2 stars 3 stars 4 stars 5 stars
comments

Glass To The Arson Tab

   
GLASS TO THE ARSON
As recorded by Anberlin
(From the 2005 Album BLUE PRINTS FOR THE BLACK MARKET)


Transcribed by Kyle Hina

 

 

Gtr I (D A D G B E) - 'Untitled'
Gtr II (D A D G B E) - 'Untitled'
Gtr III (D A D G B E) - 'Untitled'


 Inro
  Q=190
  N.C.
 4/4
  Gtr I
  PM------------------------------------------------------------------|
  E E E E E E E E   E E E E E E E E   E E E E E E E E   E E E E E E E E
|-----------------|-----------------|-----------------|-----------------|
|-----------------|-----------------|-----------------|-----------------|
|-----------------|-----------------|-----------------|-----------------|
|-----------------|-----------------|-----------------|-----------------|
|-----------------|-----------------|-----------------|-----------------|
|-4-4-4-4-4-4-4-4-|-4-4-4-4-4-4-4-4-|-7-7-7-7-7-7-7-7-|-7-7-7-7-9-9-9-9-|
|
| Gtr II
| PM------------------------------------------------------------------|
| E E E E E E E E   E E E E E E E E   E E E E E E E E   E E E E E E E E
|-----------------|-----------------|-----------------|-----------------|
|-----------------|-----------------|-----------------|-----------------|
|-----------------|-----------------|-----------------|-----------------|
|---4---4---4---4-|-----------------|---2---2---2---2-|---2---2---4---4-|
|-----------------|---4---4---4---4-|-0---0---0---0---|-0---0---2---2---|
|-4---4---4---4---|-4---4---4---4---|-----------------|-----------------|


  N.C.
  PM------------------------------------------------------------|
  E E E E E E E E   E E E E E E E E   E E E E E E E E   E E E E E E q
|-----------------|-----------------|-----------------|-----------------|
|-----------------|-----------------|-----------------|-----------------|
|-----------------|-----------------|-----------------|-----------------|
|-----------------|-----------------|-----------------|-----------------|
|-----------------|-----------------|-----------------|-----------------|
|-0-0-0-0-0-0-0-0-|-0-0-0-0-0-0-0-0-|-2-2-2-2-2-2-2-2-|-2-2-2-2-2-2-----|
|
| PM--------------------------------------------------------------|
| E E E E E E E E   E E E E E E E E   E E E E E E E E   E E E E E E Q
|-----------------|-----------------|-----------------|-----------------|
|-----------------|-----------------|-----------------|-----------------|
|-----------------|-----------------|-----------------|-----------------|
|---0---0---0---0-|---0---0---7---7-|---6---6---6---6-|---6---6---6-----|
|-----------------|-----------------|-7---7---7---7---|-7---7---7-------|
|-0---0---0---0---|-0---0---0---0---|-----------------|-----------------|


    Em F#5                        Esus2 F#5   Dsus4
     E  E  E  E  E   E   E   E     E  E  E  E  H
||------------------------------|-------------------------|
||o-----------------------------|-------------------------|
||------------------------------|-------------------------|
||---2S=4--4--4--x---x---x---x--|--2h=4--4--4--0----------|
||o--2--4--4--4-<4>-<4>-<4>-<4>-|--2h=4--4--4--0----------|
||---2--4--4--4-<4>-<4>-<4>-<4>-|--2h=4--4--4--0----------|
|
|    E  E  E  E  E   E   E   E     E  E  E  E  E  E  E  E
||------------------------------|-------------------------|
||o-----------------------------|-------------------------|
||--12S11-11-11--x---x---x---x--|-11-11-11-11-12S11-11-11-|
||---xS=x--x--x--x---x---x---x--|--x--x--x--x--xS=x--x--x-|
||o-10S=9--9--9--x---x---x---x--|--9--9--9--9-10S=9--9--9-|
||------------------------------|-------------------------|


  Em F#5                        Esus2 F#5   Dsus4
   E  E  E  E  E   E   E   E     E  E  E  E  H
|-----------------------------|--------------------------||
|-----------------------------|-------------------------o||
|-----------------------------|--------------------------||
|--2S=4--4--4--x---x---x---x--|--2h=4--4--4--0-----------||
|--2S=4--4--4-<4>-<4>-<4>-<4>-|--2h=4--4--4--0----------o||
|--2S=4--4--4-<4>-<4>-<4>-<4>-|--2h=4--4--4--0-----------||
|
|  E  E  E  E  E   E   E   E     E  E  E  E  E  E  E  E
|-----------------------------|--------------------------||
|-----------------------------|-------------------------o||
|-12S11-11-11--x---x---x---x--|-11-11-11-11-12S11-11-11--||
|--xS=x--x--x--x---x---x---x--|--x--x--x--x--xS=x--x--x--||
|-10S=9--9--9--x---x---x---x--|--9--9--9--9-10S=9--9--9-o||
|-----------------------------|--------------------------||


 Verse 1
  F#
   W                     W
|---------------------|---------------------|
|---------------------|---------------------|
|---------------------|---------------------|
|---------------------|---------------------|
|---------------------|---------------------|
|---------------------|---------------------|
|
|  E  E E E  E  E E E    E  E E E  E  E E E
|---------------------|---------------------|
|---------------------|---------------------|
|-11-11-x-x-11-11-x-x-|-11-11-x-x-11-11-x-x-|
|--x--x-x-x--x--x-x-x-|--x--x-x-x--x--x-x-x-|
|--9--9-x-x--9--9-x-x-|--9--9-x-x--9--9-x-x-|
|---------------------|---------------------|


                  D5    Esus2     D
   H         Q    Q      H         H
|---------------------|----------------------|
|---------------------|----------------------|
|---------------------|----------------------|
|-----------------0---|--2---------0---------|
|-----------------0---|--2---------0---------|
|-----------------0---|--2---------0---------|
|
|  E  E E E  E  E E E    E  E E E  E  E E E
|---------------------|----------------------|
|---------------------|----------------------|
|-11-11-x-x-11-11-x-x-|-11-11-x-x-11-11-x-x--|
|--x--x-x-x--x--x-x-x-|--x--x-x-x--x--x-x-x--|
|--9--9-x-x--9--9-x-x-|--9--9-x-x--9--9-x-x--|
|---------------------|----------------------|


  F#
   W                     W
|---------------------|---------------------|
|---------------------|---------------------|
|---------------------|---------------------|
|---------------------|---------------------|
|---------------------|---------------------|
|---------------------|---------------------|
|
|  E  E E E  E  E E E    E  E E E  E  E E E
|---------------------|---------------------|
|---------------------|---------------------|
|-11-11-x-x-11-11-x-x-|-11-11-x-x-11-11-x-x-|
|--x--x-x-x--x--x-x-x-|--x--x-x-x--x--x-x-x-|
|--9--9-x-x--9--9-x-x-|--9--9-x-x--9--9-x-x-|
|---------------------|---------------------|


                        Esus2     D
   H         Q    E E    H         H
|---------------------|----------------------|
|---------------------|----------------------|
|---------------------|----------------------|
|-----------------x-x-|--2---------0---------|
|-----------------x-x-|--2---------0---------|
|-----------------x-x-|--2---------0---------|
|
|  E  E E E  E  E E E    E  E E E  E  E E E
|---------------------|----------------------|
|---------------------|----------------------|
|-11-11-x-x-11-11-x-x-|-11-11-x-x-11-11-x-x--|
|--x--x-x-x--x--x-x-x-|--x--x-x-x--x--x-x-x--|
|--9--9-x-x--9--9-x-x-|--9--9-x-x--9--9-x-x--|
|---------------------|----------------------|


  F#        F#m         F#        F#m
   W                     W
|---------------------|---------------------|
|---------------------|---------------------|
|---------------------|---------------------|
|---------------------|---------------------|
|---------------------|---------------------|
|---------------------|---------------------|
|
|  E  E E E  E  E E E    E  E E E  E  E E E
|---------------------|---------------------|
|---------------------|---------------------|
|-11-11-x-x-11-11-x-x-|-11-11-x-x-11-11-x-x-|
|--x--x-x-x--x--x-x-x-|--x--x-x-x--x--x-x-x-|
|--9--9-x-x--9--9-x-x-|--9--9-x-x--9--9-x-x-|
|---------------------|---------------------|
|
| Gtr III
|  H         E  E Q      H         E  E Q
|------------5--5-----|------------5--5-----|
|------------7--7-----|------------7--7-----|
|---------------------|---------------------|
|---------------------|---------------------|
|---------------------|---------------------|
|---------------------|---------------------|


  F#        F#m         Esus2     D
   H         Q    E E    H         H
|---------------------|----------------------|
|---------------------|----------------------|
|---------------------|----------------------|
|-----------------x-x-|--2---------0---------|
|-----------------x-x-|--2---------0---------|
|-----------------x-x-|--2---------0---------|
|
|  E  E E E  E  E E E    E  E E E  E  E E E
|---------------------|----------------------|
|---------------------|----------------------|
|-11-11-x-x-11-11-x-x-|-11-11-x-x-11-11-x-x--|
|--x--x-x-x--x--x-x-x-|--x--x-x-x--x--x-x-x--|
|--9--9-x-x--9--9-x-x-|--9--9-x-x--9--9-x-x--|
|---------------------|----------------------|
|
|  H         E  E Q      H         E  E Q
|------------5--5-----|------------5--5------|
|------------7--7-----|------------7--7------|
|---------------------|----------------------|
|---------------------|----------------------|
|---------------------|----------------------|
|---------------------|----------------------|


  F#        F#m         F#        F#m
   W                     W
|---------------------|---------------------|
|---------------------|---------------------|
|---------------------|---------------------|
|---------------------|---------------------|
|---------------------|---------------------|
|---------------------|---------------------|
|
|  E  E E E  E  E E E    E  E E E  E  E E E
|---------------------|---------------------|
|---------------------|---------------------|
|-11-11-x-x-11-11-x-x-|-11-11-x-x-11-11-x-x-|
|--x--x-x-x--x--x-x-x-|--x--x-x-x--x--x-x-x-|
|--9--9-x-x--9--9-x-x-|--9--9-x-x--9--9-x-x-|
|---------------------|---------------------|
|
|  H         E  E Q      H         E  E Q
|------------5--5-----|------------5--5-----|
|------------7--7-----|------------7--7-----|
|---------------------|---------------------|
|---------------------|---------------------|
|---------------------|---------------------|
|---------------------|---------------------|


  F#        F#m   D5    Esus2     D
   H         Q    Q      H         H
|---------------------|----------------------|
|---------------------|----------------------|
|---------------------|----------------------|
|-----------------0---|--2---------0---------|
|-----------------0---|--2---------0---------|
|-----------------0---|--2---------0---------|
|
|  E  E E E  E  E E E    E  E E E  E  E E E
|---------------------|----------------------|
|---------------------|----------------------|
|-11-11-x-x-11-11-x-x-|-11-11-x-x-11-11-x-x--|
|--x--x-x-x--x--x-x-x-|--x--x-x-x--x--x-x-x--|
|--9--9-x-x--9--9-x-x-|--9--9-x-x--9--9-x-x--|
|---------------------|----------------------|
|
|  H         E  E Q      H         E  E Q
|------------5--5-----|------------5--5------|
|------------7--7-----|------------7--7------|
|---------------------|----------------------|
|---------------------|----------------------|
|---------------------|----------------------|
|---------------------|----------------------|


 Pre-Chorus
  N.C.
  PM------------------------------------------------------------------|
  E E E E E E E E   E E E E E E E E   E E E E E E E E   E E E E E E E E
|-----------------|-----------------|-----------------|------------------|
|-----------------|-----------------|-----------------|------------------|
|-----------------|-----------------|-----------------|------------------|
|-----------------|-----------------|-----------------|------------------|
|-5-5-5-4-4-4-5-5-|-5-4-4-4-5-5-4-5-|-7-7-7-4-4-4-7-7-|-7-4-4-4-7-7-4-7--|
|-----------------|-----------------|-----------------|------------------|
|
| PM------------------------------------------------------------------|
| E E E E E E E E   E E E E E E E E   E E E E E E E E   E E E E E E E E
|-----------------|-----------------|-----------------|------------------|
|-----------------|-----------------|-----------------|------------------|
|-----------------|-----------------|-----------------|------------------|
|-----------------|-----------------|-----------------|------------------|
|-------4-4-4-----|---4-4-4-----4---|-------4-4-4-----|---4-4-4-----4----|
|-0-0-0-------0-0-|-0-------0-0---0-|-2-2-2-------2-2-|-2-------2-2---2--|


   Chorus
    $
    F#7sus4                             Esus4/A
    H       H         Q   Q   E Q   E   H       H         Q   Q   E Q   E
||------------------|-----------------|-----------------|-----------------|
||o-----------------|-----------------|-----------------|-----------------|
||------------------|-----------------|-----------------|-----------------|
||--4-------4-------|-4---4---4-4---4-|-7-------7-------|-7---7---7-7---7-|
||o-4-------4-------|-4---4---4-4---4-|-7-------7-------|-7---7---7-7---7-|
||--4-------4-------|-4---4---4-4---4-|-7-------7-------|-7---7---7-7---7-|
|
|   Q   Q   Q   Q     Q   Q   Q   Q     Q   Q   Q   Q     Q   Q   Q   Q
||------------------|-----------------|-----------------|-----------------|
||o---------5-------|-----------------|---------5-------|-----------------|
||--------------4---|-----------------|-------------4---|-----------------|
||--4---4-----------|-4---4---4---4---|-7---7-----------|-7---7---7---7---|
||o-----------------|-----------------|-----------------|-----------------|
||------------------|-----------------|-----------------|-----------------|
|
|   Gtr III
|   PM------------------------------------------------------------------|
|   E E E E E E E E   E E E E E E E E   E E E E E E E E   E E E E E E E E
||------------------|-----------------|-----------------|-----------------|
||o-----------------|-----------------|-----------------|-----------------|
||------------------|-----------------|-----------------|-----------------|
||----4---4---4---4-|-----------------|---2---2---2---2-|---2---2---4---4-|
||o-----------------|---4---4---4---4-|-0---0---0---0---|-0---0---2---2---|
||--4---4---4---4---|-4---4---4---4---|-----------------|-----------------|


                                                             To Coda
  E7sus4/D                            E5                B5/E        D5E5
  H       H         Q   Q   E Q   E   H       H         Q   Q   Q   E E
|-----------------|-----------------|-----------------|-------------------||
|-----------------|-----------------|-----------------|------------------o||
|-----------------|-----------------|-----------------|-4---4---4---------||
|-0-------0-------|-0---0---0-0---0-|-2-------2-------|-4---4---4---0-2---||
|-0-------0-------|-0---0---0-0---0-|-2-------2-------|-2---2---2---0-2--o||
|-0-------0-------|-0---0---0-0---0-|-2-------2-------|-2---2---2---0-2---||
|
| Q   Q   Q   Q     Q   Q   Q   Q     Q   Q   Q   Q     Q   Q   Q   Q
|-----------------|-----------------|-----------------|-------------------||
|---------5-------|-----------------|---------5-------|------------------o||
|-------------4---|-----------------|-------------4---|-------------------||
|-0---0-----------|-0---0---0---0---|-2---2-----------|-2---2---2---2-----||
|-----------------|-----------------|-----------------|------------------o||
|-----------------|-----------------|-----------------|-------------------||
|
| PM------------------------------------------------------------------|
| E E E E E E E E   E E E E E E E E   E E E E E E E E   E E E E E E E E
|-----------------|-----------------|-----------------|-------------------||
|-----------------|-----------------|-----------------|------------------o||
|-----------------|-----------------|-----------------|-------------------||
|---0---0---0---0-|---0---0---7---7-|---6---6---6---6-|---6---6---6---6---||
|-----------------|-----------------|-7---7---7---7---|-7---7---7---7----o||
|-0---0---0---0---|-0---0---0---0---|-----------------|-------------------||


 Verse 2
  F#5
   H        +Q      Q      W
|-----------------------|---------------------|
|-----------------------|---------------------|
|-----------------------|---------------------|
|--4--------(4)\--------|---------------------|
|--4--------(4)\--------|---------------------|
|--4--------(4)\--------|---------------------|
|
|  E  E E E  E    E E E    E  E E E  E  E E E
|-----------------------|---------------------|
|-----------------------|---------------------|
|-11-11-x-x-11---11-x-x-|-11-11-x-x-11-11-x-x-|
|--x--x-x-x--x----x-x-x-|--x--x-x-x--x--x-x-x-|
|--9--9-x-x--9----9-x-x-|--9--9-x-x--9--9-x-x-|
|-----------------------|---------------------|


                  D5    Esus2     D
   H         Q    Q      H         H
|---------------------|----------------------|
|---------------------|----------------------|
|---------------------|----------------------|
|-----------------0---|--2---------0---------|
|-----------------0---|--2---------0---------|
|-----------------0---|--2---------0---------|
|
|  E  E E E  E  E E E    E  E E E  E  E E E
|---------------------|----------------------|
|---------------------|----------------------|
|-11-11-x-x-11-11-x-x-|-11-11-x-x-11-11-x-x--|
|--x--x-x-x--x--x-x-x-|--x--x-x-x--x--x-x-x--|
|--9--9-x-x--9--9-x-x-|--9--9-x-x--9--9-x-x--|
|---------------------|----------------------|


  F#
   W                     W
|---------------------|---------------------|
|---------------------|---------------------|
|---------------------|---------------------|
|---------------------|---------------------|
|---------------------|---------------------|
|---------------------|---------------------|
|
|  E  E E E  E  E E E    E  E E E  E  E E E
|---------------------|---------------------|
|---------------------|---------------------|
|-11-11-x-x-11-11-x-x-|-11-11-x-x-11-11-x-x-|
|--x--x-x-x--x--x-x-x-|--x--x-x-x--x--x-x-x-|
|--9--9-x-x--9--9-x-x-|--9--9-x-x--9--9-x-x-|
|---------------------|---------------------|


                        Esus2     D
   H         Q    E E    H         H
|---------------------|----------------------|
|---------------------|----------------------|
|---------------------|----------------------|
|-----------------x-x-|--2---------0---------|
|-----------------x-x-|--2---------0---------|
|-----------------x-x-|--2---------0---------|
|
|  E  E E E  E  E E E    E  E E E  E  E E E
|---------------------|----------------------|
|---------------------|----------------------|
|-11-11-x-x-11-11-x-x-|-11-11-x-x-11-11-x-x--|
|--x--x-x-x--x--x-x-x-|--x--x-x-x--x--x-x-x--|
|--9--9-x-x--9--9-x-x-|--9--9-x-x--9--9-x-x--|
|---------------------|----------------------|


  F#        F#m         F#        F#m
   W                     W
|---------------------|---------------------|
|---------------------|---------------------|
|---------------------|---------------------|
|---------------------|---------------------|
|---------------------|---------------------|
|---------------------|---------------------|
|
|  E  E E E  E  E E E    E  E E E  E  E E E
|---------------------|---------------------|
|---------------------|---------------------|
|-11-11-x-x-11-11-x-x-|-11-11-x-x-11-11-x-x-|
|--x--x-x-x--x--x-x-x-|--x--x-x-x--x--x-x-x-|
|--9--9-x-x--9--9-x-x-|--9--9-x-x--9--9-x-x-|
|---------------------|---------------------|
|
| Gtr III
|  H         E  E Q      H         E  E Q
|------------5--5-----|------------5--5-----|
|------------7--7-----|------------7--7-----|
|---------------------|---------------------|
|---------------------|---------------------|
|---------------------|---------------------|
|---------------------|---------------------|


  F#        F#m         Esus2     D
   H         Q    E E    H         H
|---------------------|----------------------|
|---------------------|----------------------|
|---------------------|----------------------|
|-----------------x-x-|--2---------0---------|
|-----------------x-x-|--2---------0---------|
|-----------------x-x-|--2---------0---------|
|
|  E  E E E  E  E E E    E  E E E  E  E E E
|---------------------|----------------------|
|---------------------|----------------------|
|-11-11-x-x-11-11-x-x-|-11-11-x-x-11-11-x-x--|
|--x--x-x-x--x--x-x-x-|--x--x-x-x--x--x-x-x--|
|--9--9-x-x--9--9-x-x-|--9--9-x-x--9--9-x-x--|
|---------------------|----------------------|
|
|  H         E  E Q      H         E  E Q
|------------5--5-----|------------5--5------|
|------------7--7-----|------------7--7------|
|---------------------|----------------------|
|---------------------|----------------------|
|---------------------|----------------------|
|---------------------|----------------------|


  F#        F#m         F#        F#m
   W                     W
|---------------------|---------------------|
|---------------------|---------------------|
|---------------------|---------------------|
|---------------------|---------------------|
|---------------------|---------------------|
|---------------------|---------------------|
|
|  E  E E E  E  E E E    E  E E E  E  E E E
|---------------------|---------------------|
|---------------------|---------------------|
|-11-11-x-x-11-11-x-x-|-11-11-x-x-11-11-x-x-|
|--x--x-x-x--x--x-x-x-|--x--x-x-x--x--x-x-x-|
|--9--9-x-x--9--9-x-x-|--9--9-x-x--9--9-x-x-|
|---------------------|---------------------|
|
|  H         E  E Q      H         E  E Q
|------------5--5-----|------------5--5-----|
|------------7--7-----|------------7--7-----|
|---------------------|---------------------|
|---------------------|---------------------|
|---------------------|---------------------|
|---------------------|---------------------|

[ Tab from: http://www.guitartabs.cc/tabs/a/anberlin/glass_to_the_arson_tab_ver_2.html ]
  F#        F#m   D5    Esus2     D
   H         Q    Q      H         H
|---------------------|----------------------|
|---------------------|----------------------|
|---------------------|----------------------|
|-----------------0---|--2---------0---------|
|-----------------0---|--2---------0---------|
|-----------------0---|--2---------0---------|
|
|  E  E E E  E  E E E    E  E E E  E  E E E
|---------------------|----------------------|
|---------------------|----------------------|
|-11-11-x-x-11-11-x-x-|-11-11-x-x-11-11-x-x--|
|--x--x-x-x--x--x-x-x-|--x--x-x-x--x--x-x-x--|
|--9--9-x-x--9--9-x-x-|--9--9-x-x--9--9-x-x--|
|---------------------|----------------------|
|
|  H         E  E Q      H         E  E Q
|------------5--5-----|------------5--5------|
|------------7--7-----|------------7--7------|
|---------------------|----------------------|
|---------------------|----------------------|
|---------------------|----------------------|
|---------------------|----------------------|


 Pre-Chorus 2
                                                          D.S. al Coda
  N.C.
  PM------------------------------------------------------------------|
  E E E E E E E E   E E E E E E E E   E E E E E E E E   E E E E E E E E
|-----------------|-----------------|-----------------|------------------|
|-----------------|-----------------|-----------------|------------------|
|-------6-6-6-----|---6-6-6-----6---|-------6-6-6-----|---6-6-6-----6----|
|-----------------|-----------------|-----------------|------------------|
|-5-5-5-------5-5-|-5-------5-5---5-|-7-7-7-------7-7-|-7-------7-7---7--|
|-----------------|-----------------|-----------------|------------------|
|
| PM------------------------------------------------------------------|
| E E E E E E E E   E E E E E E E E   E E E E E E E E   E E E E E E E E
|-----------------|-----------------|-----------------|------------------|
|-----------------|-----------------|-----------------|------------------|
|-----------------|-----------------|-----------------|------------------|
|-----------------|-----------------|-----------------|------------------|
|-------4-4-4-----|---4-4-4-----4---|-------4-4-4-----|---4-4-4-----4----|
|-0-0-0-------0-0-|-0-------0-0---0-|-2-2-2-------2-2-|-2-------2-2---2--|


 Interlude
  &
  F#5                     A5
  W          +W           W          +W
|----------|------------|----------|--------|
|----------|------------|----------|--------|
|----------|------------|----------|--------|
|-4--------|-(4)--------|-7--------|-(7)----|
|-4--------|-(4)--------|-7--------|-(7)----|
|-4--------|-(4)--------|-7--------|-(7)----|
|
| W           W           W           W
|----------|------------|----------|--------|
|----------|------------|----------|--------|
|----------|------------|----------|--------|
|----------|------------|----------|--------|
|----------|------------|----------|--------|
|----------|------------|----------|--------|


  D5                      E5         B5/E
  W          +W           W          W
|----------|------------|----------|------|
|----------|------------|----------|------|
|----------|------------|----------|-4----|
|-0--------|-(0)--------|-2--------|-4----|
|-0--------|-(0)--------|-2--------|-2----|
|-0--------|-(0)--------|-2--------|-2----|
|
| W           W           W          W
|----------|------------|----------|------|
|----------|------------|----------|------|
|----------|------------|----------|------|
|----------|------------|----------|------|
|----------|------------|----------|------|
|----------|------------|----------|------|


 Guitar Solo
  F#5
   H           H             Q     Q     E  Q     E
|-------------------------|-------------------------|
|-------------------------|-------------------------|
|-------------------------|-------------------------|
|--4-----------4----------|--4-----4-----4--4-----4-|
|--4-----------4----------|--4-----4-----4--4-----4-|
|--4-----------4----------|--4-----4-----4--4-----4-|
|
|  E  E  E  E  E  E  E  E    E  E  E  E  E  E  E  E
|-------------------------|-------------------------|
|-10-10-10-10-10-10-10-10-|-10-10-10-10-10-10-10-10-|
|-------------------------|-------------------------|
|-------------------------|-------------------------|
|-------------------------|-------------------------|
|-------------------------|-------------------------|


  A5
   H           H             Q     Q     E  Q     E
|-------------------------|--------------------------|
|-------------------------|--------------------------|
|-------------------------|--------------------------|
|--7-----------7----------|--7-----7-----7--7-----7--|
|--7-----------7----------|--7-----7-----7--7-----7--|
|--7-----------7----------|--7-----7-----7--7-----7--|
|
|  E  E  E  E  E  E  E  E    E  E  E  E  E  E  E  E
|-------------------------|--------------------------|
|-10S12-12-12-12-12-12-12-|-12-12-12-12-12-12-12S14--|
|-------------------------|--------------------------|
|-------------------------|--------------------------|
|-------------------------|--------------------------|
|-------------------------|--------------------------|


  D5
   H           H             Q     Q     E  Q     E
|-------------------------|-------------------------|
|-------------------------|-------------------------|
|-------------------------|-------------------------|
|--0-----------0----------|--0-----0-----0--0-----0-|
|--0-----------0----------|--0-----0-----0--0-----0-|
|--0-----------0----------|--0-----0-----0--0-----0-|
|
|  E  E  E  E  E  E  E  E    E  E  E  E  E  E  E  E
|-------------------------|-------------------------|
|-10-10-10-10-10-10-10-10-|-10-10-12-12-12-12-14-14-|
|-------------------------|-------------------------|
|-------------------------|-------------------------|
|-------------------------|-------------------------|
|-------------------------|-------------------------|


  E5                      B5/E
   H           H           E  E  E  E E E E E
|-----------------------|----------------------|
|-----------------------|----------------------|
|-----------------------|--4--4--x--x-4-4-x-x--|
|--2-----------2--------|--4--4--x--x-4-4-x-x--|
|--2-----------2--------|--2--2--x--x-2-2-x-x--|
|--2-----------2--------|--2--2--x--x-2-2-x-x--|
|
|  E  E  E  E  E  E  Q     E  E  E  E E E E E
|-----------------------|----------------------|
|-12-12-12-12-12-12-12--|-10-10-10-10-9-9-9-9--|
|-----------------------|----------------------|
|-----------------------|----------------------|
|-----------------------|----------------------|
|-----------------------|----------------------|


  F#5
  H           H             Q     Q     E  Q     E
|------------------------|-------------------------|
|------------------------|-------------------------|
|------------------------|-------------------------|
|-4-----------4----------|--4-----4-----4--4-----4-|
|-4-----------4----------|--4-----4-----4--4-----4-|
|-4-----------4----------|--4-----4-----4--4-----4-|
|
| E  E  E  E  E  E  E  E    E  E  E  E  E  E  E  E
|------------------------|-------------------------|
|-9S10-10-10-10-10-10-10-|-10-10-10-10-10-10-10-10-|
|------------------------|-------------------------|
|------------------------|-------------------------|
|------------------------|-------------------------|
|------------------------|-------------------------|


  A5
   H           H             Q     Q     E  Q     E
|-------------------------|--------------------------|
|-------------------------|--------------------------|
|-------------------------|--------------------------|
|--7-----------7----------|--7-----7-----7--7-----7--|
|--7-----------7----------|--7-----7-----7--7-----7--|
|--7-----------7----------|--7-----7-----7--7-----7--|
|
|  E  E  E  E  E  E  E  E    E  E  E  E  E  E  E  E
|-------------------------|--------------------------|
|-10S12-12-12-12-12-12-12-|-12-12-12-12-12-12-12S14--|
|-------------------------|--------------------------|
|-------------------------|--------------------------|
|-------------------------|--------------------------|
|-------------------------|--------------------------|


  D5
   H           H             Q     Q     E  Q     E
|-------------------------|-------------------------|
|-------------------------|-------------------------|
|-------------------------|-------------------------|
|--0-----------0----------|--0-----0-----0--0-----0-|
|--0-----------0----------|--0-----0-----0--0-----0-|
|--0-----------0----------|--0-----0-----0--0-----0-|
|
|  E  E  E  E  E  E  E  E    E  E  E  E  E  E  E  E
|-------------------------|-------------------------|
|-10-10-10-10-10-10-10-10-|-10-10-12-12-12-12-14-14-|
|-------------------------|-------------------------|
|-------------------------|-------------------------|
|-------------------------|-------------------------|
|-------------------------|-------------------------|


  E5                      B5/E
   H           H           E  E  E  E E E E E
|-----------------------|----------------------|
|-----------------------|----------------------|
|-----------------------|--4--4--4--4-4-4-4-4--|
|--2-----------2--------|--4--4--4--4-4-4-4-4--|
|--2-----------2--------|--2--2--2--2-2-2-2-2--|
|--2-----------2--------|--2--2--2--2-2-2-2-2--|
|
|  E  E  E  E  E  E  Q     E  E  E  E E E E E
|-----------------------|----------------------|
|-12-12-12-12-12-12-12--|-10-10-10-10-9-9-9-9--|
|-----------------------|----------------------|
|-----------------------|----------------------|
|-----------------------|----------------------|
|-----------------------|----------------------|


 Breakdown
  F#5       F#                     F#m7/A
  E E E E H             H           H
|--------------------|-------------------------|
|--------------------|-------------------------|
|--------------------|-------------------------|
|-4-4-4-4------------|--------------7----------|
|-4-4-4-4------------|--------------7----------|
|-4-4-4-4------------|--------------7----------|
|
| E E E E E  E  E  E    E  E  E  E  E  E  E  E
|--------------------|-------------------------|
|-9-9-9-9------------|-------------------------|
|-----------11-11-11-|-11-11-11-11-11-11-11-11-|
|------------x--x--x-|--x--x--x--x--x--x--x--x-|
|------------9--9--9-|--9--9--9--9--9--9--9--9-|
|--------------------|-------------------------|


  E5/A      F#                     E5/A
  E E E E H             H           H
|--------------------|--------------------------|
|--------------------|--------------------------|
|-9-9-9-9------------|--------------9-----------|
|-9-9-9-9------------|--------------9-----------|
|-7-7-7-7------------|--------------7-----------|
|-7-7-7-7------------|--------------7-----------|
|
| H       E  E  E  E    E  E  E  E  E  E  E  E
|--------------------|--------------------------|
|--------------------|--------------------------|
|-----------11-11-11-|-11-11-11-11-11-11-11-11--|
|------------x--x--x-|--x--x--x--x--x--x--x--x--|
|------------9--9--9-|--9--9--9--9--9--9--9--9--|
|--------------------|--------------------------|


                                                           Drum Fill
  D5                      E5               B5/E
                                                           2/4
  H    H      H    H      E E E E E E Q    E E E E E E Q    H
|-----------|-----------|----------------|----------------|------|
|-----------|-----------|----------------|----------------|------|
|-----------|-----------|----------------|-4-4-4-4-x-x-4--|------|
|-0----0----|-0----0----|-2-2-2-2-x-x-2--|-4-4-4-4-x-x-4--|------|
|-0----0----|-0----0----|-2-2-2-2-x-x-2--|-2-2-2-2-x-x-2--|------|
|-0----0----|-0----0----|-2-2-2-2-x-x-2--|-2-2-2-2-x-x-2--|------|
|
| H    H      H    H      E E E E E E Q    E E E E E E Q    H
|-----------|-----------|----------------|----------------|------|
|-----------|-----------|----------------|----------------|------|
|-----------|-----------|----------------|-4-4-4-4-x-x-4--|------|
|-0----0----|-0----0----|-2-2-2-2-x-x-2--|-4-4-4-4-x-x-4--|------|
|-0----0----|-0----0----|-2-2-2-2-x-x-2--|-2-2-2-2-x-x-2--|------|
|-0----0----|-0----0----|-2-2-2-2-x-x-2--|-2-2-2-2-x-x-2--|------|


   Chorus
    F#7sus4                             Esus4/A
   4/4
    H       H         Q   Q   E Q   E   H       H         Q   Q   E Q   E
||------------------|-----------------|-----------------|------------------|
||o-----------------|-----------------|-----------------|------------------|
||------------------|-----------------|-----------------|------------------|
||--4-------4-------|-4---4---4-4---4-|-7-------7-------|-7---7---7-7---7--|
||o-4-------4-------|-4---4---4-4---4-|-7-------7-------|-7---7---7-7---7--|
||--4-------4-------|-4---4---4-4---4-|-7-------7-------|-7---7---7-7---7--|
|
|   Q   Q   Q   Q     Q   Q   Q   Q     Q   Q   Q   Q     Q   Q   Q   Q
||------------------|-----------------|-----------------|------------------|
||o---------5-------|-----------------|---------5-------|------------------|
||--------------4---|-----------------|-------------4---|------------------|
||--4---4-----------|-4---4---4---4---|-7---7-----------|-7---7---7---7----|
||o-----------------|-----------------|-----------------|------------------|
||------------------|-----------------|-----------------|------------------|
|
|   Gtr III
|   PM------------------------------------------------------------------|
|   E E E E E E E E   E E E E E E E E   E E E E E E E E   E E E E E E E E
||------------------|-----------------|-----------------|------------------|
||o-----------------|-----------------|-----------------|------------------|
||------------------|-----------------|-----------------|------------------|
||----4---4---4---4-|-----------------|---2---2---2---2-|---2---2---4---4--|
||o-----------------|---4---4---4---4-|-0---0---0---0---|-0---0---2---2----|
||--4---4---4---4---|-4---4---4---4---|-----------------|------------------|


  E7sus4/D                            E5                B5/E        D5E5
  H       H         Q   Q   E Q   E   H       H         Q   Q   Q   E E
|-----------------|-----------------|-----------------|-------------------||
|-----------------|-----------------|-----------------|------------------o||
|-----------------|-----------------|-----------------|-4---4---4---------||
|-0-------0-------|-0---0---0-0---0-|-2-------2-------|-4---4---4---0-2---||
|-0-------0-------|-0---0---0-0---0-|-2-------2-------|-2---2---2---0-2--o||
|-0-------0-------|-0---0---0-0---0-|-2-------2-------|-2---2---2---0-2---||
|
| Q   Q   Q   Q     Q   Q   Q   Q     Q   Q   Q   Q     Q   Q   Q   Q
|-----------------|-----------------|-----------------|-------------------||
|---------5-------|-----------------|---------5-------|------------------o||
|-------------4---|-----------------|-------------4---|-------------------||
|-0---0-----------|-0---0---0---0---|-2---2-----------|-2---2---2---2-----||
|-----------------|-----------------|-----------------|------------------o||
|-----------------|-----------------|-----------------|-------------------||
|
| PM------------------------------------------------------------------|
| E E E E E E E E   E E E E E E E E   E E E E E E E E   E E E E E E E E
|-----------------|-----------------|-----------------|-------------------||
|-----------------|-----------------|-----------------|------------------o||
|-----------------|-----------------|-----------------|-------------------||
|---0---0---0---0-|---0---0---7---7-|---6---6---6---6-|---6---6---6---6---||
|-----------------|-----------------|-7---7---7---7---|-7---7---7---7----o||
|-0---0---0---0---|-0---0---0---0---|-----------------|-------------------||


   Out-Chorus
    F#7sus4
     E  E  E  E  E  E  E  E    E  E  E  E  E  E  E  E
||--------------------------|-------------------------|
||o-------------------------|-------------------------|
||--------------------------|-------------------------|
||---4--4--4--4--4--4--4--4-|--4--4--4--4--4--4--4--4-|
||o--4--4--4--4--4--4--4--4-|--4--4--4--4--4--4--4--4-|
||---4--4--4--4--4--4--4--4-|--4--4--4--4--4--4--4--4-|
|
|    Q     Q     Q     Q       Q     Q     Q     Q
||--------------------------|-------------------------|
||o--------------5----------|-------------------------|
||---------------------4----|-------------------------|
||---4-----4----------------|--4-----4-----4-----4----|
||o-------------------------|-------------------------|
||--------------------------|-------------------------|
|
|   Gtr III
|    E  E  E  E  E  E  E  E    E  E  E  E  E  E  E  E
||--------------------------|-------------------------|
||o-10-10-10-10-10-10-10-10-|-10-10-10-10-10-10-10-10-|
||--------------------------|-------------------------|
||--------------------------|-------------------------|
||o-------------------------|-------------------------|
||--------------------------|-------------------------|


  Esus4/A
   E  E  E  E  E  E  E  E    E  E  E  E  E  E  E  E
|-------------------------|-------------------------|
|-------------------------|-------------------------|
|-------------------------|-------------------------|
|--7--7--7--7--7--7--7--7-|--7--7--7--7--7--7--7--7-|
|--7--7--7--7--7--7--7--7-|--7--7--7--7--7--7--7--7-|
|--7--7--7--7--7--7--7--7-|--7--7--7--7--7--7--7--7-|
|
|  Q     Q     Q     Q       Q     Q     Q     Q
|-------------------------|-------------------------|
|--------------5----------|-------------------------|
|--------------------4----|-------------------------|
|--7-----7----------------|--7-----7-----7-----7----|
|-------------------------|-------------------------|
|-------------------------|-------------------------|
|
|  E  E  E  E  E  E  E  E    E  E  E  E  E  E  E  E
|-------------------------|-------------------------|
|-10S12-12-12-12-12-12-12-|-12-12-12-12-12-12-12S14-|
|-------------------------|-------------------------|
|-------------------------|-------------------------|
|-------------------------|-------------------------|
|-------------------------|-------------------------|


  E7sus4/D
   E  E  E  E  E  E  E  E    E  E  E  E  E  E  E  E
|-------------------------|-------------------------|
|-------------------------|-------------------------|
|-------------------------|-------------------------|
|--0--0--0--0--0--0--0--0-|--0--0--0--0--0--0--0--0-|
|--0--0--0--0--0--0--0--0-|--0--0--0--0--0--0--0--0-|
|--0--0--0--0--0--0--0--0-|--0--0--0--0--0--0--0--0-|
|
|  Q     Q     Q     Q       Q     Q     Q     Q
|-------------------------|-------------------------|
|--------------5----------|-------------------------|
|--------------------4----|-------------------------|
|--0-----0----------------|--0-----0-----0-----0----|
|-------------------------|-------------------------|
|-------------------------|-------------------------|
|
|  E  E  E  E  E  E  E  E    E  E  E  E  E  E  E  E
|-------------------------|-------------------------|
|-10-10-10-10-10-10-10-10-|-10-10-12-12-12-12-14-14-|
|-------------------------|-------------------------|
|-------------------------|-------------------------|
|-------------------------|-------------------------|
|-------------------------|-------------------------|


  E5                                   B5/E
   E  E  E  E  E  E  E E    E  E  E  E E E E E
|------------------------|-----------------------||
|------------------------|----------------------o||
|------------------------|-------------4-4-4-4---||
|--2--2--2--2--2--2--2-2-|--2--2--2--2-4-4-4-4---||
|--2--2--2--2--2--2--2-2-|--2--2--2--2-2-2-2-2--o||
|--2--2--2--2--2--2--2-2-|--2--2--2--2-2-2-2-2---||
|
|  Q     Q     Q     Q      Q     Q    Q   Q
|------------------------|-----------------------||
|--------------5---------|----------------------o||
|--------------------4---|-----------------------||
|--2-----2---------------|--2-----2----2---2-----||
|------------------------|----------------------o||
|------------------------|-----------------------||
|
|  E  E  E  E  E  E  Q      E  E  E  E E E E E
|------------------------|-----------------------||
|-12-12-12-12-12-12-12---|-10-10-10-10-9-9-9-9--o||
|------------------------|-----------------------||
|------------------------|-----------------------||
|------------------------|----------------------o||
|------------------------|-----------------------||


  F#m11
   W             +W            +W            +W
|-------------|-------------|-------------|---------*|
|-------------|-------------|-------------|---------*|
|-------------|-------------|-------------|---------*|
|--4----------|--(4)--------|--(4)--------|--(4)----*|
|--4----------|--(4)--------|--(4)--------|--(4)----*|
|--4----------|--(4)--------|--(4)--------|--(4)----*|
|
|  H    Q  Q     +W            +W            +W
|-------------|-------------|-------------|---------*|
|-------5-----|-------------|-------------|---------*|
|----------4--|--(4)--------|--(4)--------|--(4)----*|
|--4----------|-------------|-------------|---------*|
|-------------|-------------|-------------|---------*|
|-------------|-------------|-------------|---------*|
|
|  W             +W            +W            +W
|-------------|-------------|-------------|---------*|
|-10----------|-(10)--------|-(10)--------|-(10)----*|
|-------------|-------------|-------------|---------*|
|-------------|-------------|-------------|---------*|
|-------------|-------------|-------------|---------*|
|-------------|-------------|-------------|---------*|




--------------------------------------------------------------------------------


Duration Legend
---------------
W - whole; H - half; Q - quarter; E - 8th; S - 16th; T - 32nd; X - 64th; a - acciaccatura
+ - note tied to previous; . - note dotted; .. - note double dotted
Uncapitalized letters represent notes that are staccato (1/2 duration)
Irregular groupings are notated above the duration line
Duration letters will always appear directly above the note/fret number it represents the
duration for.  Duration letters with no fret number below them represent rests.  Multi-
bar rests are notated in the form Wxn, where n is the number of bars to rest for.  Low
melody durations appear below the staff

Tablature Legend
----------------
 h   - hammer-on
 p   - pull-off
 b   - bend
 pb  - pre-bend
 r   - bend release (if no number after the r, then release immediately)
 /\  - slide into or out of (from/to "nowhere")
 s   - legato slide
 S   - shift slide
 - natural harmonic
[n]  - artificial harmonic
n(n) - tapped harmonic
 ~   - vibrato
 tr  - trill
 T   - tap
 TP  - trem. picking
 PM  - palm muting
\n/  - tremolo bar dip; n = amount to dip
 \n  - tremolo bar down
 n/  - tremolo bar up
/n\  - tremolo bar inverted dip
 =   - hold bend; also acts as connecting device for hammers/pulls
 <> - volume swell (louder/softer)
 x   - on rhythm slash represents muted slash
 o   - on rhythm slash represents single note slash

Misc Legend
-----------
 |  - bar
||  - double bar
||o - repeat start
o|| - repeat end
*|  - double bar (ending)
 :  - bar (freetime)
 $  - Segno
 &  - Coda
Tempo markers -  = BPM(8/16=s8/s16), where s8 = swing 8ths, s16 = swing 16ths


Comments