Anberlin - Glass To The Arson Chords & Tabs

 

Glass To The Arson Chords & Tabs

Anberlin Chords & Tabs

Version: 1 Type: Tab 0 ratings
1 star 2 stars 3 stars 4 stars 5 stars
comments

Glass To The Arson Tab

   
Tabbed By: Julian Stevenson
Email: jaws_da_man@hotmail.com

Tuning: Drop-D

INTRO
e/--------------------------------------------------------------------------|
b\--------------------------------------------------------------------------|
g/--------------------------------------------------------------------------|
d\--------------------------------------------------------------------------|
a/--5-5-5-5-5-5-5-5-6-6-6-6-6-6-6-6-7-7-7-7-7-7-7-7-5-5-5-5-5-5-5-5---------|
D\--------------------------------------------------------------------------|
    * * * * * * * * * * * * * * * * * * * * * * * * * * * * * * * *

This uses harmonics so i'll put an h under the harmonic notes

e/---------------------------\
b\---------------------------\
g/---------------------------\
d\---4-4-4-4-7-7-7-7-0-------\ x4
a/---4-4-4-4-7-7-7-7-0-------\
D\---4-4-4-4-7-7-7-7-0-------\
             h h h h
[ Tab from: http://www.guitartabs.cc/tabs/a/anberlin/glass_to_the_arson_tab.html ]
                                VERSE
e\---------------------------------------------------------------\
b/---------------------------------------------------------------\
g\---11-11-xx-11-11-xx-11-11-xx-11-11-xx-11-11-xx-11-11----------\
d/---x--x--xx-x--x--xx-x--x--xx-x--x--xx-x--x--xx-x--x----0-4-3--\
a\---9--9--xx-9--9--xx-9--9--xx-9--9--xx-9--9--xx-9--9----0-4-3\-\
D/--------------------------------------------------------0-4-3--\

                           PRECHORUS
e\-------------------------------------------------------------------------\
b/-------------------------------------------------------------------------\
g\-------------------------------------------------------------------------\
d/-------------------------------------------------------------------------\
a\-3333333333333333-5555555555555555-7777777777777777-9999999999999999-----\
D/-3333333333333333-5555555555555555-7777777777777777-9999999999999999-----\
   **************** **************** **************** ****************

                              CHORUS
e\--3-3-3333-5-5-5555-7-7-7777-9--9--8-----\
b/--3-3-3333-5-5-5555-7-7-7777-9--9--8-----\
g\--5-5-5555-7-7-7777-9-9-9999-11-11-10----\
d/--3-3-3333-5-5-5555-7-7-7777-9--9--8--\--\ x2
a\--3-3-3333-5-5-5555-7-7-7777-9--9--8-----\
D/--3-3-3333-5-5-5555-7-7-7777-9--9--8-----\

well theres a bridge which is 7-9-11-13 frets on the low D string, with a wha effect.
Comments