Anberlin - Change The World Chords & Tabs

 

Change The World Chords & Tabs

Anberlin Chords & Tabs

Version: 2 Type: Tab 0 ratings
1 star 2 stars 3 stars 4 stars 5 stars
comments

Change The World Tab

   
-------------------------------------------------------------------------------
			     Change the World - Anberlin
-------------------------------------------------------------------------------
Tabbed by: Marc M.
Email: checkmarc86@yahoo.com

Mostly the same as the other except right side up and fixed verse, solo and 2nd chorus.

Tuning:DADGBe

Intro
e|------------------------------------------------------------------------------|
B|------------------------------------------------------------------------------|
G|--7---------5-------10------- x-----------------------------------------------|
D|--7--x 10---5--x6---10--x6--- x-----------------------------------------------|
A|--5---------3-------8---------x-----------------------------------------------|
D|------------------------------------------------------------------------------|

Bridge x2
e|-----------------------------------------------------------------------------|
B|-----------------------------------------------------------------------------|
G|---77------7-----99----10-10-----10------10-10-------10----------------------|
D|---77------7-----99----10-10-----10------10-10-------10-x--------------------|
A|---55-0----5-0---77-0--8--8-- 0--8---0----8--8- 0-----8----------------------|
D|------0------0------0---------0------0----------0-----8----------------------|

Verse x 2
e|------------------------------------------------------------------------------|
B|--6-5----8-6-5h6--------------------------------------------------------------|
G|-----5h7----------x3-------10-------------------------------------------------|
D|---------------------------10-------------------------------------------------|
A|---------------------------8----x10-------------------------------------------|
D|---------------------------8--------------------------------------------------|
[ Tab from: http://www.guitartabs.cc/tabs/a/anberlin/change_the_world_tab_ver_2.html ]
Pre-Chorus
e|-----------------------------------------------------------------------------|
B|-----------------------------------------------------------------------------|
G|---10------------------------------------------------------------------------|
D|---10---x20------------------------------------------------------------------|
A|---8-------------------------------------------------------------------------|
E|---8-------------------------------------------------------------------------|

Chorus
e|---------------------------------------------------------------------|
B|---------------------------------------------------------------------|
G|----10---------12-------10-------5-----------------------------------|
D|----10-x10----12--x10--10--x10--5-x10---3----------------------------|
A|----8---------10--------8--------3-------3-x15-----------------------|
E|----8---------10--------8--------3-------3 --------------------------|

Chorus (cont.)
e|-----------------------------------------------------------------------------|
B|-----------------------------------------------------------------------------|
G|-----10--------12-----------------10--------5--------------------------------|
D|-----10--------12----------3------10--------5--------------------------------|
A|-----8---x10---10--x10---- 3-x15--8---x10-- 3-x10----------------------------|
D|-----8---------10----------3------8---------3--------------------------------|

Solo x2
e|-----------------------------------------------------------------------------|
B|-----------------------------------------------------------------------------|
G|-----------------------------------------------------------------------------|
D|---------------5555----------------------------------------------------------|
A|--3555553555555555-----------------------------------------------------------|
D|----0000--00005555-----------------------------------------------------------|

Beginning of 2nd Chorus
e|-----------------------------------------------------------------------------|
B|-----------------------------------------------------------------------------|
G|--10--------7--12-10-12------------------------------------------------------|
D|--10--x10-- 7--12-10-12------------------------------------------------------|
A|--8---------5--7--8--10------------------------------------------------------|
D|--8--------------------------------------------------------------------------|

| /  slide up
| \  slide down
| h  hammer-on
| p  pull-off
| ~  vibrato
| +  harmonic
| x  Mute note
Comments