Anaya Raymond - About A Girl Chords & Tabs

 

About A Girl Chords & Tabs

Anaya Raymond Chords & Tabs

Version: 1 Type: Tab 0 ratings
1 star 2 stars 3 stars 4 stars 5 stars
comments

About A Girl Tab

made by: Anaya, Raymond

*-let ring      /-slide up      -slide down      p-pull off      ^-strum upwards     

|-------2-------2-------1-------1-------0-------0-------0---------2-2-2-2-^--|
|-----3---3---3---3---3---3---3---3---1---1---1---1---0---0-------3-3-3-3-^--|
|---2-------2-------2-------2-------2-------2-------1-------1-----2-2-2-2-^--|
|----------------------------------------------------------------------------|
|----------------------------------------------------------------------------|
|----------------------------------------------------------------------------|
                    
|---1-1-1-1-^-0-0-0-0-^-0-0-0-0-^-2-2-2-2-^-1-1-1-1-^-0-0-0-0-^-0-0-0-0----*-|
|---3-3-3-3-^-1-1-1-1-^-0-0-0-0-^-3-3-3-3-^-3-3-3-3-^-1-1-1-1-^-0-0-0-0----*-|
|---2-2-2-2-^-2-2-2-2-^-1-1-1-1-^-2-2-2-2-^-2-2-2-2-^-2-2-2-2-^-1-1-1-1-p1-*-|
|-------------------------------^-0-0-0-0-^-0-0-0-0-^-0-0-0-0-^-0-0-0-0----*-|
|-------------------------------^-0-0-0-0-^-0-0-0-0-^-0-0-0-0-^-0-0-0-0----*-|
|----------------------------------------------------------------------------|

|----------------------------------------------------------------------------|
|----------------------------------------------------------------------------|
|----------------------------------------------------------------------------|
|--------4---4---4-5---5---5-7---7---7-5---5---5/-9--4---4---4-5---5---5----|
|--------2---2---2-3---3---3-5---5---5-3---3---3/-7--2---2---2-3---3---3----|
|--------0-0-0-0-0-0-0-0-0-0-0-0-0-0-0-0-0-0-0-0/-0--0-0-0-0-0-0-0-0-0-0----|

|----------------------------------------------------------------------------|
|----------------------------------------------------------------------------|
|----------------------------------------------------------------------------|
|---7---7---7-9-7-5---9-9-7-7-5-5-9-7-5-7-5/-9-*----------9-------9-------7--|
|---5---5---5-7-5-3---7-7-5-5-3-3-7-5-3-5-3/-7-*--------7---7---7---7---5----|
|---0-0-0-0-0-0-0-0-0-0-0-0-0-0-0-0-0-0-0-0/-0-*------0-------0-------0------|
[ Tab from: http://www.guitartabs.cc/tabs/a/anaya_raymond/about_a_girl_tab.html ]
|----------------------------------------------------------------------------|
|----------------------------------------------------------------------------|
|----------------------------------------------------------------------------|
|--------7-------5-------5-------7-------7-------9-------9--------7-------7--|
|--5---5---5---3---3---3---3---5---5---5---5---7---7---7---7----5---5---5----|
|----0-------0-------0-------0-------0-------0-------0-------0--------0------|

|----------------------------------------------------------------------------|
|----------------------------------------------------------------------------|
|----------------------------------------------------------------------------|
|-------5-------5-------7-------7-------9-*----------------------------------|
|--5--3---3---3---3---5---5---5---5---7---*---[-9---9---7-7-9---9---5-7-]----|
|---0-------0-------0-------0-------0-----*---[-7-x-7-x-5-5-7-x-7-x-3-5-]----|
                                                    [repeat  4 times]
|----------------------------------------------------------------------------|
|----------------------------------------------------------------------------|
|----------------------------------------------------------------------------|
|------------------------------------0-------0-------0-------0-------0-------|
|-[-9999-7777-9999-5-7-]-9-*-------9---9---9---9---7---7---7---7---2---2---2-|
|-[-7777-5555-7777-3-5-]-7-*-----7-------7-------5-------5-------3-------3---|
      [repeat 4 times]
|----------------------------------------------------------------------------|
|----------------------------------------------------------------------------|
|----------------------------------------------------------------------------|
|--0-------4-------4----[----0-------0-----------4-------4-----------0-------|
|----2---2---2---2---2--[--2---2---2---2-------2---2---2---2-------2---2-----|
|------0-------0--------[3-------3-------3-2-0-------0-------0-2-3-------3---|
                                   [repeat 6 times & fade away with it]
|----------------------------------------------------------------------------|
|----------------------------------------------------------------------------|
|----------------------------------------------------------------------------|
|---0---]--------------------------------------------------------------------|
|-2---2-]--------------------------------------------------------------------|
|-------]--------------------------------------------------------------------|
Comments