Anathema - Silent Enigma Chords & Tabs

 

Silent Enigma Chords & Tabs

Anathema Chords & Tabs

Version: 1 Type: Tab 0 ratings
1 star 2 stars 3 stars 4 stars 5 stars
comments

Silent Enigma Tab

"Silent Enigma" by Anathema

This is intro , only thing I tabbed.


play 2 times 
E|----------------------------------------
B|----------0-----------0-------------0---
G|------5-----5-----5-----5-------5-----5-  guitar fade in with volume pedal
D|----7---7-------7---7---------5---5-----
A|--0-----------0-------------0-----------
E|----------------------------------------


play 2 times
E|------------------------------------------
B|----------0-------------0------------0----
G|------5-----5-------5-----5------5-----5--
D|----3---3---------3---5--------5---5------
A|--0-------------0------------0------------
E|------------------------------------------
[ Tab from: http://www.guitartabs.cc/tabs/a/anathema/silent_enigma_tab.html ]
play 2 times
E|---------------------------------------------
B|---------------------------------------------
G|--9-----7------5-----4-----------------------
D|----7-----7------7-----7---------------------
A|------0-----0------0-----0-------------------
E|---------------------------------------------

E|---------------------------------------------
B|---------------------------------------------
G|----5----4---5-7---5-4----5---4--12-10-9-----
D|--7----5----------------7---5-------------12-
A|---------------------------------------------
E|---------------------------------------------


"...Beneath and open sky..."
E|---------------------------------------------
B|--------0----------0-------------------------
G|------5---------5-----5----------------------
D|----7---------7----------7-------------------
A|--0---------8--------------------------------
E|---------------------------------------------
Comments