Anathema - Alternative Chords & Tabs

 

Alternative Chords & Tabs

Anathema Chords & Tabs

Version: 1 Type: Bass Tab 0 ratings
1 star 2 stars 3 stars 4 stars 5 stars
comments

Alternative Bass Tab

Song is in Drop D

G||------------------|------|------|------|
D||------------------|------|------|------|
A||------------------|------|------|------|
D||------------------|------|------|------|


                                       
----7---7---7---7----8----8----8----8-|
--0---0---0---0---10---10---10---10---|
--------------------------------------|
--------------------------------------|


                                           
----7---7---7---7----12----12----11----11-|
--0---0---0---0---10----10----10----10----|
------------------------------------------|
------------------------------------------|


                                       
----7---7---7---7----8----8----8----8-|
--0---0---0---0---10---10---10---10---|
--------------------------------------|
--------------------------------------|


                                           
----7---7---7---7----12----12----11----11-|
--0---0---0---0---10----10----10----10----|
------------------------------------------|
------------------------------------------|


                                       
----7---7---7---7----8----8----8----8-|
--0---0---0---0---10---10---10---10---|
--------------------------------------|
--------------------------------------|


                                           
----7---7---7---7----12----12----11----11-|
--0---0---0---0---10----10----10----10----|
------------------------------------------|
------------------------------------------|


                                       
----7---7---7---7----8----8----8----8-|
--0---0---0---0---10---10---10---10---|
--------------------------------------|
--------------------------------------|


                                           
----7---7---7---7----12----12----11----11-|
--0---0---0---0---10----10----10----10----|
------------------------------------------|
------------------------------------------|


                                       
----7---7---7---7----8----8----8----8-|
--0---0---0---0---10---10---10---10---|
--------------------------------------|
--------------------------------------|


                                           
----7---7---7---7----12----12----11----11-|
--0---0---0---0---10----10----10----10----|
------------------------------------------|
------------------------------------------|


                                       
----7---7---7---7----8----8----8----8-|
--0---0---0---0---10---10---10---10---|
--------------------------------------|
--------------------------------------|


                                           
----7---7---7---7----12----12----11----11-|
--0---0---0---0---10----10----10----10----|
------------------------------------------|
------------------------------------------|


                                       
----7---7---7---7----8----8----8----8-|
--0---0---0---0---10---10---10---10---|
--------------------------------------|
--------------------------------------|


                                           
----7---7---7---7----12----12----11----11-|
--0---0---0---0---10----10----10----10----|
------------------------------------------|
------------------------------------------|


                                       
----7---7---7---7----8----8----8----8-|
--0---0---0---0---10---10---10---10---|
--------------------------------------|
--------------------------------------|


                                                                      
----7---7---7---7----12----12----11----11-|--------------------------|
--0---0---0---0---10----10----10----10----|--------------------------|
------------------------------------------|--5-5--------3-3----------|
------------------------------------------|-------------------0-3/7/-|


                                                       
---------------------------|--------------------------|
-------------------5---4---|--------------------------|
--5-5--------3-3-3---3---3-|--5-5--------3-3----------|
--x------------------------|-------------------0-3/7/-|


                                                               
---------------------------|----7---7---7---7---7---7---7---7-|
-------------------5---4---|--0---0---0---0---0---0---0---0---|
--5-5--------3-3-3---3---3-|----------------------------------|
--x------------------------|----------------------------------|


                                                                          
----7---7---7---7---7---7---7---7-|----7---7---7---7----8----8----8----8-|
--0---0---0---0---0---0---0---0---|--0---0---0---0---10---10---10---10---|
----------------------------------|--------------------------------------|
----------------------------------|--------------------------------------|


                                           
----7---7---7---7----12----12----11----11-|
--0---0---0---0---10----10----10----10----|
------------------------------------------|
------------------------------------------|


                                       
----7---7---7---7----8----8----8----8-|
--0---0---0---0---10---10---10---10---|
--------------------------------------|
--------------------------------------|


                                           
----7---7---7---7----12----12----11----11-|
--0---0---0---0---10----10----10----10----|
------------------------------------------|
------------------------------------------|


                                       
----7---7---7---7----8----8----8----8-|
--0---0---0---0---10---10---10---10---|
--------------------------------------|
--------------------------------------|


                                           
----7---7---7---7----12----12----11----11-|
--0---0---0---0---10----10----10----10----|
------------------------------------------|
------------------------------------------|

[ Tab from: http://www.guitartabs.cc/tabs/a/anathema/alternative_btab.html ]
                                       
----7---7---7---7----8----8----8----8-|
--0---0---0---0---10---10---10---10---|
--------------------------------------|
--------------------------------------|


                                                                      
----7---7---7---7----12----12----11----11-|--------------------------|
--0---0---0---0---10----10----10----10----|--------------------------|
------------------------------------------|--5-5--------3-3----------|
------------------------------------------|-------------------0-3/7/-|


                                                       
---------------------------|--------------------------|
-------------------5---4---|--------------------------|
--5-5--------3-3-3---3---3-|--5-5--------3-3----------|
--x------------------------|-------------------0-3/7/-|


                                                       
---------------------------|--------------------------|
-------------------5---4---|--------------------------|
--5-5--------3-3-3---3---3-|--5-5--------3-3----------|
--x------------------------|-------------------0-3/7/-|


                                                       
---------------------------|--------------------------|
-------------------5---4---|--------------------------|
--5-5--------3-3-3---3---3-|--5-5--------3-3----------|
--x------------------------|-------------------0-3/7/-|


                                                                   
---------------------------|----7---7---7---7----8----8----8----8-|
-------------------5---4---|--0---0---0---0---10---10---10---10---|
--5-5--------3-3-3---3---3-|--------------------------------------|
--x------------------------|--------------------------------------|


                                           
----7---7---7---7----12----12----11----11-|
--0---0---0---0---10----10----10----10----|
------------------------------------------|
------------------------------------------|


                                       
----7---7---7---7----8----8----8----8-|
--0---0---0---0---10---10---10---10---|
--------------------------------------|
--------------------------------------|


                                           
----7---7---7---7----12----12----11----11-|
--0---0---0---0---10----10----10----10----|
------------------------------------------|
------------------------------------------|


                                       
----7---7---7---7----8----8----8----8-|
--0---0---0---0---10---10---10---10---|
--------------------------------------|
--------------------------------------|


                                           
----7---7---7---7----12----12----11----11-|
--0---0---0---0---10----10----10----10----|
------------------------------------------|
------------------------------------------|


                                       
----7---7---7---7----8----8----8----8-|
--0---0---0---0---10---10---10---10---|
--------------------------------------|
--------------------------------------|


                                                                              
----7---7---7---7----12----12----11----11-|------------------|---|---|---|---|
--0---0---0---0---10----10----10----10----|------------------|---|---|---|---|
------------------------------------------|------------------|---|---|---|---|
------------------------------------------|------------------|---|---|---|---|


                                               
---|---|---|----------------------------------|
---|---|---|----------------------------------|
---|---|---|----5---5---5---5---5---5---5---5-|
---|---|---|--0---0---0---0---0---0---0---0---|


                                                                      
----------------------------------|----------------------------------|
----------------------------------|----------------------------------|
----5---5---5---5---5---5---5---5-|----5---5---5---5---5---5---5---5-|
--0---0---0---0---0---0---0---0---|--0---0---0---0---0---0---0---0---|


                                                                      
----------------------------------|----------------------------------|
----------------------------------|----------------------------------|
----5---5---5---5---5---5---5---5-|----5---5---5---5---5---5---5---5-|
--0---0---0---0---0---0---0---0---|--0---0---0---0---0---0---0---0---|


                                                                      
----------------------------------|----------------------------------|
----------------------------------|----------------------------------|
----5---5---5---5---5---5---5---5-|----5---5---5---5---5---5---5---5-|
--0---0---0---0---0---0---0---0---|--0---0---0---0---0---0---0---0---|


                                                                      
----------------------------------|----------------------------------|
----------------------------------|----------------------------------|
----5---5---5---5---5---5---5---5-|----5---5---5---5---5---5---5---5-|
--0---0---0---0---0---0---0---0---|--0---0---0---0---0---0---0---0---|


                                                                      
----------------------------------|----------------------------------|
----------------------------------|----------------------------------|
----5---5---5---5---5---5---5---5-|----5---5---5---5---5---5---5---5-|
--0---0---0---0---0---0---0---0---|--0---0---0---0---0---0---0---0---|


                                                              
----------------------------------|--------------------------|
----------------------4---5-------|--------------------------|
----5---5---5---5---3---3---3-3/0-|--5-5--------3-3----------|
--0---0---0---0---0---------------|-------------------0-3/7/-|


                                                       
---------------------------|--------------------------|
-------------------5---4---|--------------------------|
--5-5--------3-3-3---3---3-|--5-5--------3-3----------|
--x------------------------|-------------------0-3/7/-|


                             
---------------------------||
-------------------5---4---||
--5-5--------3-3-3---3---3-||
--x------------------------||
Comments