Anathema - A Natural Disaster Chords & Tabs

 

A Natural Disaster Chords & Tabs

Anathema Chords & Tabs

Version: 1 Type: Tab 0 ratings
1 star 2 stars 3 stars 4 stars 5 stars
comments

A Natural Disaster Tab

   
Anathema - A Natural Disaster

Transcribed by Lord Reaper (LordReaper@metalreaper.tk) 02nd November 2004

Tuning: E (normal)

Verse:
~~~~~~

 Part I:
 ~~~~~~~
	       G5 F#5 E5
e|-------------------------------|
B|-------------------------------|
G|-------------------------------|
D|--2-4-5-4-2--5---4---2---------|
A|-------------5---4---2---------|
E|-------------3---2---0---------|

[ Tab from: http://www.guitartabs.cc/tabs/a/anathema/a_natural_disaster_tab.html ]
 Part II:
 ~~~~~~~~
	       C5  -  B5
e|-------------------------------|
B|-------------------------------|
G|-------------5---4---4---------|
D|--2-4-5-4-2--5---4---4---------|
A|-------------3---2---2---------|
E|-----------------0-------------|
               You just slipped through my fingers


Chorus:
~~~~~~~
    C5  E5  B5
e|-------------------------------|
B|-------------------------------|
G|--5-------4---4-2-2-0-0--------|
D|--5---2---4-------------4------|
A|--3---2---2--------------------|
E|------0------------------------|


Here's the order it's played in:
~~~~~~~~~~~~~~~~~~~~~~~~~~~~~~~~
Part I
Part II
Part I
Chorus
Part I
Chorus

The following chords are played:
~~~~~~~~~~~~~~~~~~~~~~~~~~~~~~~~
G5 F#5 E5

C5 E5 B5


Transcribed by Lord Reaper (LordReaper@metalreaper.tk)
Comments