Anastacia - Left Outside Alone Chords & Tabs

 

Left Outside Alone Chords & Tabs

Anastacia Chords & Tabs

Version: 2 Type: Bass Tab

Left Outside Alone Bass Tab

   
Title: Left outside alone
Artist: Anastacia
Album: Anastacia
Tabber: Stephan
Email: cyberbassist@hotmail.com


Intro:

   Bb C  D    Bb C  A
G|---------------------|
D|---------------------|
A|-1~-3~-5~---1~-3~----|
E|------------------5~-|

Verse
   D                               G
G|----------------------------------------------------------------------|
D|----------------------------------------------------------------------|
A|-5-5-5-5-5-5-5-5-5-5-5-5-5-5-5-5--------------------------------------|
E|---------------------------------3-3-3-3-3-3-3-3-3-3-3-3-3-3-3-3------|

   Bb              A               D
G|----------------------------------------------------------------------|
D|----------------------------------------------------------------------|
A|---------------------------------5-5-5-5-5-5-5-5-5-5-5-5-5-5-5-5------|
E|-6-6-6-6-6-6-6-6-5-5-5-5-5-5-5-5--------------------------------------|


Chorus
   Bb              C               D
G|----------------------------------------------------------------------|
D|----------------------------------------------------------------------|
A|-1-1-1-1-1-1-1-1-3-3-3-3-3-3-3-3-5-5-5-5-5-5-5-5-5-5-5-5-5-5-5-5------|
E|----------------------------------------------------------------------|
[ Tab from: http://www.guitartabs.cc/tabs/a/anastacia/left_outside_alone_btab_ver_2.html ]
   Bb              C               A
G|------------------------------------------------------------------------|
D|------------------------------------------------------------------------|
A|-1-1-1-1-1-1-1-1-3-3-3-3-3-3-3-3-0-0-0-0-0-0-0-0-0-0-0-0-0-0-0-0--------|
E|------------------------------------------------------------------------|

   Bb                   C                   D
G|-------------------------------------------------------------------------------------|
D|-------------------------------------------------------------------------------------|
A|-1-11-1-11-1-11-1-11--3-33-3-33-3-33-3-33-5-55-5-55-5-55-5-55-5-55-5-55-5-55-5-55----|
E|-------------------------------------------------------------------------------------|

   Bb                   C                   A
G|-------------------------------------------------------------------------------------|
D|-------------------------------------------------------------------------------------|
A|-1-11-1-11-1-11-1-11--3-33-3-33-3-33-3-33--------------------------------------------|
E|------------------------------------------5-55-5-55-5-55-5-55-5-55-5-55-5-55-5-55----|

Interlude 2:36 (smooth part)

                   [..slide each note]
G|----------------------------------------------------------------------|
D|----------------------------------------------------------------------|
A|-5~-----1~-------5-7-8-10-12-15---------------------------------------|
E|----3~------5~--------------------------------------------------------|


Figure out the song with these part...funny to play
EnJOy!
cyberbassist