Anal Moose Ranch - I Want To Be An Eel Acoustic Chords & Tabs

 

I Want To Be An Eel Acoustic Chords & Tabs

Anal Moose Ranch Chords & Tabs

Version: 1 Type: Tab 0 ratings
1 star 2 stars 3 stars 4 stars 5 stars
comments

I Want To Be An Eel Acoustic Tab

ARTIST: ANAL MOOSE RANCH
SONG: I WANT TO BE AN EEL (ACOUSTIC VERSION)
ALBUM: NONE
TABBED BY DEXTER HETFIELD
take_off_your_pants_and_jacket_now@hotmail.com

/=SLIDE UP
[ Tab from: http://www.guitartabs.cc/tabs/a/anal_moose_ranch/i_want_to_be_an_eel_acoustic_tab.html ]
MAIN RIFF
1)--------------------------|
2)--------------------------|
3)--0-0-2-2/7--4-6-5-2-0----|
4)--0-0-2-2/7--4-6-5-2-0----|
5)--0-0-2-2/7--4-6-5-2-0----|
6)--0-0-2-2/7--4-6-5-2-0----|

REST OF SONG (VARIOUSLY THRASHED, NO PARTICULAR TIMING)
1)-----------|
2)-----------|
3)--4-4-4-4--|
4)--4-4-4-4--|
5)--4-4-4-4--|
6)--4-4-4-4--|

END ON
1)---|
2)---|
3)-4-|
4)-4-|
5)-4-|
6)-4-|

TIMINGS NOT SHOWN, EACH "CHORD" PLAYED NUMEROUS TIMES
LISTEN TO THE SONG FOR IT.

Comments