Anal Cunt - Stayin Alive Chords & Tabs

 

Stayin Alive Chords & Tabs

Anal Cunt Chords & Tabs

Version: 1 Type: Tab 0 ratings
1 star 2 stars 3 stars 4 stars 5 stars
comments

Stayin Alive Tab

Anal Cunt - "Stayin' Alive"
                     From the Album "Top 40 Hits"
                     Version 1.0 - November 2002

Transcribed by: Nigel Krick

For Questions, Comments, Newest Version, or Corrections contact
Nigel: at empty_words@msn.com

Tune to A


"Stayin' Alive"


Riff 1
|----------------------|
|----------------------|
|--8-8-------6-6-------|
|--8-8--8-8--6-6--6-6--|
|--6-6--8-8--4-4--6-6--|
|-------6-6-------4-4--|
[ Tab from: http://www.guitartabs.cc/tabs/a/anal_cunt/stayin_alive_tab.html ]
Riff 2
|---------------------------------|
|---------------------------------|
|-----------------6--8-8--6-8-8---|
|-6--8-8--6--8-8--6--8-8--6-8-8---|
|-6--8-8--6--8-8--4--6-6--4-6-6---|
|-4--6-6--4--6-6------------------|

Riff 3
|------------------------------------|
|------------------------------------|
|------8-8-------6-6-----------------|
|-8-8--8-8--6-6--6-6--6--8-8--6-8-8--|
|-8-8--6-6--6-6--4-4--6--8-8--6-8-8--|
|-6-6-------4-4-------4--6-6--4-6-6--|


Riff 4
|--------------------|
|--------------------|
|--------------------|
|-7----6----4----2---|
|-7----6----4----2---|
|-5----4----2----0---|
Comments