Ana Johnsson - Dont Cry For Pain Chords & Tabs

 

Dont Cry For Pain Chords & Tabs

Ana Johnsson Chords & Tabs

Version: 1 Type: Tab 0 ratings
1 star 2 stars 3 stars 4 stars 5 stars
comments

Dont Cry For Pain Tab

   
Ana Johnsson - Don't cry for pain

---------------------------------

An easy to play song (even for beginners like me), but great sound!!!
At least as good as "We are" which is featured in the Spiderman II soundtrack.

The table of chords for the verses and the lyrics are attached as well.

This is my first tab and if there are any comments please write to:
doenisp@web.de

Greetings from Germany!!!

---------------------------------
Standard-Tuning (EADGBe)
---------------------------------

Verse(s):
++ clean ++
B
Hey man, here's my plan
F#        E 
I'm gonna break it
B
Hey you, don't be sad
F#                    E
Here's your chance, so take it
B
If you slap my face, if you don't go
F#
Honestly I don't care at all


Pre-Chorus:
++ disortion ++
e |----------------------------------------------------------|
B |----------------------------------------------------------|
G |8-8---8---9-9-9---9---11-11-11---11---11/6----------------|
D |8-8---8---9-9-9---9---11-11-11---11---11/6----------------|
A |6-6---6---7-7-7---7---9--9--9----9----9-/4----------------|
E |----------------------------------------------------------|
   1. "Maybe I'm a bit complicated...      I don't cry for ->"
   2. "I've never meant to be...           I don't cry for ->"


Chorus:
++ disortion ++

2nd Chorus: ends on "5-7-7-X-X-X", not on "7-9-9-X-X-X"
to lead into the bridge
Final-Chorus: first to lines are played clean, disortion
comes in at: "I don't cry the rain, no not a tear...")
e |----------------------------------------------------------|
B |----------------------------------------------------------|
G |------------------------9--9--9--9--9--9--9--9------------|
D |6--6--6--6--6--6--6--6--9--9--9--9--9--9--9--9--9--9--9--9|
A |6--6--6--6--6--6--6--6--7--7--7--7--7--7--7--7--9--9--9--9|
E |4--4--4--4--4--4--4--4--------------------------7--7--7--7|
   "-> pain, don't cry from fear..." 

e |------------------------------------|
B |------------------------------------|
G |------------------------------------|
D |9--9--9--9--9--9--9--9--4--4--4--4--|
A |9--9--9--9--9--9--9--9--4--4--4--4--|
E |7--7--7--7--7--7--7--7--2--2--2--2--|
            "...I don't cry the rain,->"
[ Tab from: http://www.guitartabs.cc/tabs/a/ana_johnsson/dont_cry_for_pain_tab.html ]
e |-----------------------------------------------------------|
B |-----------------------------------------------------------|
G |------------------------9--9--9--9--9--9--9--9--11-11-11-11|
D |6--6--6--6--6--6--6--6--9--9--9--9--9--9--9--9--11-11-11-11|
A |6--6--6--6--6--6--6--6--7--7--7--7--7--7--7--7--9--9--9--9-|
E |4--4--4--4--4--4--4--4-------------------------------------|
   "-> no not a tear..."

e |-----------------------------------|
B |-----------------------------------|
G |11-11-11-11------------------------|
D |11-11-11-11-11-11-11-11-11-11-11-11|
A |9--9--9--9--11-11-11-11-11-11-11-11|
E |------------9--9--9--9--9--9--9--9-|
                       "Before you ->"

e |----------------------------------------------------------|
B |----------------------------------------------------------|
G |------------------------6--6--6--6--6--6--6--6--8--8--8--8|
D |6--6--6--6--6--6--6--6--6--6--6--6--6--6--6--6--8--8--8--8|
A |6--6--6--6--6--6--6--6--4--4--4--4--4--4--4--4--6--6--6--6|
E |4--4--4--4--4--4--4--4------------------------------------|
   "-> leave, when you go...."

e |----------------------------------|
B |----------------------------------|
G |8--8--8--8--9--9--9--9-11-11-11-11|
D |8--8--8--8--9--9--9--9-11-11-11-11|
A |6--6--6--6--7--7--7--7-9--9--9--9-|
E |----------------------------------|
                   "Don't cry for ->"

e |----------------------------------------------------------|
B |----------------------------------------------------------|
G |------------------------9--9--9--9--9--9--9--9------------|
D |6--6--6--6--6--6--6--6--9--9--9--9--9--9--9--9--9---------|
A |6--6--6--6--6--6--6--6--7--7--7--7--7--7--7--7--9---------|
E |4--4--4--4--4--4--4--4--------------------------7---------|
   "-> pain,                I only fight for       love"


Bridge:
++ disortion ++

e |------------------------------------------------------------|
B |------------------------------------------------------------|
G |------------------------------------------------------------|
D |--7--7--7--6--6--6--7--7--7--6--6--6--7--7--7--6--6--6------|
A |--7--7--7--6--6--6--7--7--7--6--6--6--7--7--7--6--6--6------|
E |--5--5--5--4--4--4--5--5--5--4--4--4--5--5--5--4--4--4------|
                      "I need something making..."

e |------------------------------------------------------------|
B |------------------------------------------------------------|
G |--6--6--6--6--------------------------------6---------------|
D |--6--6--6--6--6--6--6--6--4--4--4--4--------6---------------|
A |--4--4--4--4--6--6--6--6--4--4--4--4--------4---------------|
E |--------------4--4--4--4--2--2--2--2------------------------|
   "You can't hurt, we are... can't be right."



Table of Chords
---------------
        EADGBe
B       x24442
F#      244322
E       022100
Comments