Amulet - Naked Eye Chords & Tabs

 

Naked Eye Chords & Tabs

Amulet Chords & Tabs

Version: 1 Type: Bass Tab

Naked Eye Bass Tab

Band: Amulet
Album: Freedom Fighters
Song: Naked eye

the rythm isnt perfect, but listen to the song and you will catch it.

  Intro1 x 2

G|---------------------------------|
D|---------------------------------|
A|------------3/6~----3~-3/6~------|
E|---6-5-3~--------6---------------|

  Intro2 x 2

G|-----------------------------------------------------|
D|-----------------------------------------------------|
A|----------------3/66666666---33333333/66666666-------|
E|---6-5-33333333------------6-------------------------|

verse

G|--------------------------------------------|
D|--------------------------------------------|
A|-------------33-6666-6666-------------------|
E|---3-3-33-11--------------------------------|

G|--------------------------------------------|
D|--------------------------------------------|
A|-------------33-66666666--------------------|
E|---3-3-33-11-------------66-----------------|

G|--------------------------------------------|
D|--------------------------------------------|
A|-------------33-6666-6666-------------------|
E|---3-3-33-11--------------------------------|
[ Tab from: http://www.guitartabs.cc/tabs/a/amulet/naked_eye_btab.html ]
G|------------------------------------------------------------|
D|------------------------------------------------------------|
A|-----------------66666666-11111111--------------------------|
E|---3-3-33/6-6-66-------------------11111111/6---------------|

chorus x 2

G|-----------------------------------------------------------|
D|-----------------------------------------------------------|
A|----------3/66666666---33333333/66666666-8888--------------|
E|-33333333------------6-------------------------------------|

G|------------------------------------------------------------|
D|------------------------------------------------------------|
A|----------3/66666666---33333333/66666666-88-10101-----------|
E|-33333333------------6--------------------------------------|

verse x 1

Chorus x 2

Bridge1 x 1

G|-----------------------------------------------------------|
D|-----------------------------------------------------------|
A|---------333/66---------333/66-----------------------------|
E|-333-111--------333-111--------66666-7777------------------|

Bridge2 x 2

G|-----------------------------------------------------------|
D|-----------------------------------------------------------|
A|-------6666-3333-111111------------------------------------|
E|-33333------------------11111------------------------------|

chorus x 4

Contact me at : Johannessen_89@msn.com