Amorphis - My Kantele Chords & Tabs

 

My Kantele Chords & Tabs

Amorphis Chords & Tabs

Version: 1 Type: Tab 0 ratings
1 star 2 stars 3 stars 4 stars 5 stars
comments

My Kantele Tab

Tabbed by: Colin Attlesey [AttleseyC@Cogeco.ca]

My Kentele
  Tomi
d|-----------------------|-----------------------|-----------------------|
A|-----------------------|-----------------------|-----------------------|
F|-----------------------|-----------------------|-----------------------|
C|-----------------------|-----------------------|-----------------------|
G|-----------------------|-----------------------|-----------------------|
D|-----------------------|-----------------------|-----------------------|
 | Esa X2                                                                |
d|-----------------------|-----------------------|-----------------------|
A|-3-----3---3--------3--|-3-----3---------------|-------3--3-------3----|
F|-2-----0---0h2p0----0--|---0-----0-------------|-------2----2-------2--|
C|-0--3--0---------3--2--|-----2------3--2h3p2p0-|-3-2---0-------0-------|
G|-----------------------|-----------------------|----3------------------|
D|-----------------------|-----------------------|-----------------------|


  Tomi
d|-----------------------|-----------------------|-----------------------|
A|-3-----3---3--------3--|-3-----3---------------|-------3--3-------3----|
F|-2-----0---0h2p0----0--|---0-----0-------------|-------2----2-------2--|
C|-0--3--0---------3--2--|-----2------3--2h3p2p0-|-3-2---0-------0-------|
G|-----------------------|-----------------------|----3------------------|
D|-----------------------|-----------------------|-----------------------|
 | Esa                                                                   |
d|-----------------------|-----------------------|-----------------------|
A|-3-----3---3--------3--|-3-----3---------------|-------3--3-------3----|
F|-2-----0---0h2p0----0--|---0-----0-------------|-------2----2-------2--|
C|-0--3--0---------3--2--|-----2------3--2h3p2p0-|-3-2---0-------0-------|
G|-----------------------|-----------------------|----3------------------|
D|-----------------------|-----------------------|-----------------------|

[ Tab from: http://www.guitartabs.cc/tabs/a/amorphis/my_kantele_tab.html ]
  Tomi - Let all strings ring
d|-----------------------|-----------------------|
A|-----------------------|-1---1-1-1---3---3-3-3-|
F|-2---2--2--------------|-0---0-0-0---2---2-2-2-|
C|-2---2--2---2---2-2-2--|-2---2-2-2---0---0-0-0-|
G|-0---0--0---2---2-2-2--|-3---3-3-3-------------|
D|------------0---0-0-0--|-----------------------|
 | Esa                                           |
d|-----------------------|-----------------------|
A|-----------------------|-1---1-1-1---3---3-3-3-|
F|-2---2--2--------------|-0---0-0-0---2---2-2-2-|
C|-2---2--2---2---2-2-2--|-2---2-2-2---0---0-0-0-|
G|-0---0--0---2---2-2-2--|-3---3-3-3-------------|
D|------------0---0-0-0--|-----------------------|


  Tomi
d|------------------------8--|------------------------8--|
A|-10----10-----8-----8-----8|--8-----8-----6-----6-----6|
F|----7-----7-----5-----5----|----5-----5-----3-----3----|
C|0-----0-----0-----0--------|0-----0-----0-----0--------|
G|---------------------------|---------------------------|
D|---------------------------|---------------------------|
  Tomi
d|------------------------8--|---------------------------|
A|--6-----6-----5-----5-----5|-0h3--3--3-----1----1------|
F|----3-----3-----2-----2----|-0h2--2--2-----0----0------|
C|0-----0-----0-----0--------|-0h0--0--0-----------------|
G|---------------------------|-------------3----3--------|
D|---------------------------|---------------------------|


  Tomi
d|------------------------8--|------------------------8--|
A|-10----10-----8-----8-----8|--8-----8-----6-----6-----6|
F|----7-----7-----5-----5----|----5-----5-----3-----3----|
C|0-----0-----0-----0--------|0-----0-----0-----0--------|
G|---------------------------|---------------------------|
D|---------------------------|---------------------------|
 | Esa                                                   |
d|--------0------------------|---------------------------|
A|-3------3-----1---1-1---1--|-1-1----1------------------|
F|-2------2-----0---0-0---0--|-0-0----0-----3---3-3---3--|
C|-0------0-----2---2-2---2--|-2-2----2-----3---3-3---3--|
G|--------------3---3-3---3--|-3-3----3-----1---1-1---1--|
D|---------------------------|---------------------------|


  Tomi
d|------------------------8--|---------------------------|
A|--6-----6-----5-----5-----5|-0h3---3-3-----1-----1-----|
F|----3-----3-----2-----2----|-0h2---2-2-----0-----0-----|
C|0-----0-----0-----0--------|-0h0---0-0-----------------|
G|---------------------------|-------------3-----3-------|
D|---------------------------|---------------------------|
 | Esa                                                   |
d|---------------------------|-0-0---0-0-----------------|
A|---------------------------|-0h3---3-3---1-1---1--1----|
F|-3-3----3-----2---2-2---2--|-0h2---2-2---0-0---0--0----|
C|-3-3----3-----2---2-2---2--|-0h0---0-0---2-2---2--2----|
G|-1-1----1-----0---0-0---0--|-------------3-3---3--3----|
D|---------------------------|---------------------------|
Comments