Amorphis - House Of Sleep Chords & Tabs

 

House Of Sleep Chords & Tabs

Amorphis Chords & Tabs

Version: 1 Type: Tab

House Of Sleep Tab

  Amorphis
 House Of Sleep

 Tabbed by Nedi Lesev (vaquero@abv.bg)
 Tune down one step DGCFAD

  Riff 1 x2
 |---------------------------------------------------------------------|
 |--10-------------8-10-------------10-------------8-10----------------|
 |------9-7----7-9-------9-7------------9-7----7-9-------9-7-----------|Esa
 |----------10---------------10--9----------10---------------10--9-----|
 |---------------------------------------------------------------------|
 |---------------------------------------------------------------------|

 |---------------------------------------------------------------------|
 |---------------------------------------------------------------------|
 |---------------------------------------------------------------------|Tomi
 |---------------------------------------------------------------------|
 |--7-7-7-7-7-7-7-7-7-7-7-7-7-7-7-7-3-3-3-3-3-3-3-3-3-3-3-3-3-2-2-2----|
 |--5-5-5-5-5-5-5-5-5-5-5-5-5-5-5-5-1-1-1-1-1-1-1-1-1-1-1-1-1-0-0-0----|

 |---------------------------------------------------------------------|
 |--10-------------8-10------------------------------------------------|
 |------9-7----7-9-------9-7--------9-12-12---9-7----------------------|Esa
 |----------10---------------10--9------------------10--9--------------|
 |---------------------------------------------------------10-7--------|
 |---------------------------------------------------------------------|

 |---------------------------------------------------------------------|
 |---------------------------------------------------------------------|
 |---------------------------------------------------------------------|Tomi
 |--------------------------------------------------7-7-7-7-9-9-9-9----|
 |--7-7-7-7-7-7-7-7-7-7-7-7-7-7-7-7-5-5-5-5-5-5-5-5-5-5-5-5-7-7-7-7----|
7|--5-5-5-5-5-5-5-5-5-5-5-5-5-5-5-5-3-3-3-3-3-3-3-3--------------------|

  Riff 2 x2
 |---------------------------------------------------------------------|
 |---------------------------------------------------------------------|
 |---------------------------------------------------------------------|Both
 |---------------------------------------------------------------------|
 |--7-7-7-7-7-7-7-7-5-5-5-5-5-5-5-5-7-7-7-7-7-7-7-7-5-5-5-5-5-5-5-5----|
 |--5-5-5-5-5-5-5-5-3-3-3-3-3-3-3-3-5-5-5-5-5-5-5-5-3-3-3-3-3-3-3-3----|
  pm...............................................................
 
 |---------------------------------------------------------------------|
 |---------------------------------------------------------------------|
 |---------------------------------------------------------------------|Both
 |---------------------------------------------------------------------|
 |--7-7-7-7-7-7-7-7-5-5-5-5-5-5-5-5-3-3-3-3-3-3-3-3-2-2-2-2-2-2-2-2----|
 |--5-5-5-5-5-5-5-5-3-3-3-3-3-3-3-3-1-1-1-1-1-1-1-1-0-0-0-0-0-0-0-0----|
  pm...............................................................
[ Tab from: http://www.guitartabs.cc/tabs/a/amorphis/house_of_sleep_tab.html ]
 Riff 1 x2
 Riff 2 x2
 Riff 1 x2
 Some piano and shit here
 
  Riff 3
 |---------------------------------------------------------------------|
 |--8------------6-8------------8-----------6-8------------------------|
 |-----7-5---5-7------7-5---------7-5---5-7------7-5-------------------|Esa
 |---------8--------------8--7--------8--------------8--7--------------|
 |---------------------------------------------------------------------|
 |---------------------------------------------------------------------|

 |---------------------------------------------------------------------|
 |---------------------------------------------------------------------|
 |---------------------------------------------------------------------|Tomi
 |----------------------------------8-8-8-8-8-8-8-8-8-8-8-8-8-7-7-7----|
 |--5-5-5-5-5-5-5-5-5-5-5-5-5-5-5-5-6-6-6-6-6-6-6-6-6-6-6-6-6-5-5-5----|
 |--3-3-3-3-3-3-3-3-3-3-3-3-3-3-3-3------------------------------------|

 |---------------------------------------------------------------------|
 |--8------------6-8---------------------------------------------------|
 |-----7-5---5-7------7-5---------7-10-10---7-5------------------------|Esa
 |---------8--------------8--7-------------------8--7------------------|
 |-----------------------------------------------------8-5-------------|
 |---------------------------------------------------------------------|

 |---------------------------------------------------------------------|
 |---------------------------------------------------------------------|
 |---------------------------------------------------------------------|Tomi
 |--------------------------------------------------5-5-5-5-7-7-7-7----|
 |--5-5-5-5-5-5-5-5-5-5-5-5-5-5-5-5-3-3-3-3-3-3-3-3-3-3-3-3-5-5-5-5----|
 |--3-3-3-3-3-3-3-3-3-3-3-3-3-3-3-3-1-1-1-1-1-1-1-1--------------------|

|---------------------------------------------------------------------|
 |--8------------6-8------------8-----------6-8------------------------|
 |-----7-5---5-7------7-5---------7-5---5-7------7-5-------------------|Esa
 |---------8--------------8--7--------8--------------8--7--------------|
 |---------------------------------------------------------------------|
 |---------------------------------------------------------------------|

 |---------------------------------------------------------------------|
 |---------------------------------------------------------------------|
 |---------------------------------------------------------------------|Tomi
 |----------------------------------8-8-8-8-8-8-8-8-8-8-8-8-8-7-7-7----|
 |--5-5-5-5-5-5-5-5-5-5-5-5-5-5-5-5-6-6-6-6-6-6-6-6-6-6-6-6-6-5-5-5----|
 |--3-3-3-3-3-3-3-3-3-3-3-3-3-3-3-3------------------------------------|

 |---------------------------------------------------------------------|
 |--8------------6-8---------------------------------------------------|
 |-----7-5---5-7------7-5-------7-10-10---7-5--------------------------|Esa
 |---------8--------------8--7-----------------8--7-8-7h8\3-5----------|
 |---------------------------------------------------------------------|
 |---------------------------------------------------------------------|

 |---------------------------------------------------------------------|
 |---------------------------------------------------------------------|
 |---------------------------------------------------------------------|Tomi
 |------------------------------------------5-------7------------------|
 |--5-5-5-5-5-5-5-5-5-5-5-5-5-5-5-5-3-------3-------5-------5----------|
 |--3-3-3-3-3-3-3-3-3-3-3-3-3-3-3-3-1-----------------------3----------|

 That's it!