Amorphis - Day Of Your Beliefs Chords & Tabs

 

Day Of Your Beliefs Chords & Tabs

Amorphis Chords & Tabs

Version: 1 Type: Tab 0 ratings
1 star 2 stars 3 stars 4 stars 5 stars
comments

Day Of Your Beliefs Tab

   
Amorphis - Day Of Your Beliefs Tab

Tabbed by Christian Utzerath (2003)

Setup:
2 Guitars, dropped D
GTR 1 Melody: Light delay, pickup -> neck
GTR 2 Rhythm: Heavy Crunch, pickup -> bridge

Note.:
1. please don't care for the bars, they aren't written to make sense but to look nice ;P
2. I've just written which accords appear in which part. I've not put them in rhythm or an order, if they, like in the prechorus, repeat themselves.
3. Give me all your money. Now. ;)



/ Slide up
\ Slide down
h hammer / pull of
(7) silent or very slight note


Intro:
GTR 2: 
 -


GTR 1:                           2x                                          2x
e|---------------|------------------|-------------------------------------------|------------------------------|
h|---------------|------------------|-------------------------------------------|------------------------------|
g|/12 10h12h10 7-|0 2 3 (7) 0h2h0  2|12-12-10-7 5h75 3 2 0 0 2 3 7 0h2h0 -0-----| 10 12 14 19 12h14h12 10 12---|
d|---------------|--------------- 3 |-----------------------------------3-------|------------------------------|
A|---------------|------------------|-------------------------------------------|------------------------------|
D|---------------|------------------|-------------------------------------------|------------------------------|




Verse:
GTR 2:
plays Powerchords 
G Ais F Dis D

[ Tab from: http://www.guitartabs.cc/tabs/a/amorphis/day_of_your_beliefs_tab.html ]
GTR 1:
e |-------------------------------|-------------------------------|---------------|---------------|---------------|---------------|
h |-------------------------------|-------------------------------|---------------|---------------|---------------|---------------|
g |12-12-10-7-7h5h7h5-3-2-0-------|0-2-3 0-7 0-0h2h0 --0----------|---------------|---------------|---------------|---------------|
d |-------------------------------|------------------3------------|---------------|---------------|---------------|---------------|
A |-------------------------------|-------------------------------|---------------|---------------|---------------|---------------|
D |-------------------------------|-------------------------------|---------------|---------------|---------------|---------------|


Bridge
GTR 2 plays Powerchords
G Ais F G

GTR 1:
e|---------------------------|
h|---------------------------|
g|-0-2-7 0 0 2h0---0---------|
d|---------------3-----------|
A|---------------------------|
D|---------------------------|


Prechorus
GTR 2:
Plays Powerchords
C Ais Gis F Gis   then
C Ais Gis F G


GTR 1:
 - 


Outro:
GTR 2:
Ais cis Gis Fis


GTW 1:
e|----------------------------------------------------------------|
h|----------------------------------------------------------------|
g|----------------------------------------------------------------|
d|-20 20 18 15 13h15h13 ----------------------15------------------|
A|-----------------------16 15 13- 13 15 16------13h15h13 11 13---|
D|----------------------------------------------------------------|



Solo:
In the middle of the track there is also a solo, but I didn't tab it because you can find it easily on your own by putting some parts of the Intro and the Verse together.



They may still be some mistake, for example a non-tabbed repeat in which only one note is played a bit stronger. I didn't wrote those, because the riffs are still the sames.


If you have any suggestions, pls mail to: redfury@gmx.net
The Don
Comments