Amorphis - Black Winter Day Chords & Tabs

 

Black Winter Day Chords & Tabs

Amorphis Chords & Tabs

Version: 1 Type: Tab 0 ratings
1 star 2 stars 3 stars 4 stars 5 stars
comments

Black Winter Day Tab

         -----black winter day------


e-------------------------------------------------------------
B-------------------------------------------------------------
G----------6h8--------------------8-6------------------6h8h9--
D-6h8-9-6-----------6------9----6-----6--9-8---4/7-8h9--------
A---------------7h9----7h9------------------------------------
E-------------------------------------------------------------
[ Tab from: http://www.guitartabs.cc/tabs/a/amorphis/black_winter_day_tab.html ]
e----------------------------------------------------
B----------------------------------------------------
G----------6h8---------------------------------------
D-6h8-9-6-----------6------9-------------6---6-------
A---------------7h9----7h9-----6h8-9-8-9-------9-8-6-
E----------------------------------------------------


e-------------------------------------------------------------
B-------------------------------------------------------------
G----------6h8--------------------8-6------------------6h8h9--
D-6h8-9-6-----------6------9----6-----6--9-8---4/7-8h9--------
A---------------7h9----7h9------------------------------------
E-------------------------------------------------------------


e------------------------------------------------------
B------------------------------------------------------
G----------6h8-----------------------------------6h8-6-
D-6h8-9-6-----------6------9-------------6---6h8-------
A---------------7h9----7h9-----6h8-9-8-9---------------
E------------------------------------------------------


matematik_81@yahoo.com
Comments