Amorf ?rd?g?k - Nagy Meleg Pul?ver Chords & Tabs

 

Nagy Meleg Pul?ver Chords & Tabs

Amorf ?rd?g?k Chords & Tabs

Version: 1 Type: Tab 0 ratings
1 star 2 stars 3 stars 4 stars 5 stars
comments

Nagy Meleg Pul?ver Tab

Amorf Ördögök - Nagy meleg pulóver
Album: Cellux-szimfónia (2005)



Intro
e --------------------------------------
h --11-10-8-----------------------------
g ----------10-7-5—(5)/7---5-3-0--0-3-0-
D --------------------------------------
A --------------------------------------
E --------------------------------------


e --------------------------------------
h --11-10-8-8-8-------------------------
g --------------10—(10)/12--10-7-5------
D --------------------------------------
A --------------------------------------
E --------------------------------------


e --------------------------------------
h --11-10-8-----------------------------
g ----------10-7-5—(5)/7---5-3-0--0-3-0-
D --------------------------------------
A --------------------------------------
E --------------------------------------


e --------------------------------------
h --------------------------------------
g -0-3-5-(5)/7--7-7--5-5-5--(5)/7-------
D --------------------------------------
A --------------------------------------
E --------------------------------------

--

e --------------------------------------
h --11-10-8-----------------------------
g ----------10-7-5—(5)/7---5-3-0--0-3-0-
D --------------------------------------
A --------------------------------------
E --------------------------------------


e --------------------------------------
h --11-10-8-8-8-------------------------
g --------------10—(10)/12--10-7-5------
D --------------------------------------
A --------------------------------------
E --------------------------------------


e --------------------------------------
h --11-10-8-----------------------------
g ----------10-7-5—(5)/7---5-3-0--0-3-0-
D --------------------------------------
A --------------------------------------
E --------------------------------------


e --------------------------------------
h --------------------------------------
g -0-3-5-(5)/7--7-7--5-5-5--(5)/7-------
D --------------------------------------
A --------------------------------------
E --------------------------------------


Verse 1  (no guitar)
Nagy meleg pulóver ma a szerelem,
Bevetetlen ágyon tartjuk melegen
Az érzést, nem járt erre még,
Sőt, talán még soha, csak vártuk, mikor lép


Verse 2  (no guitar)
Életünkbe, kéményünkön át
Belezuhant tegnap, fejbecsaptuk hát
A lexikonnal, nem engedtük el,
Egy ilyen érzet minden háztartásba kell


Break 1
e --------------------------------------
h --11-10-8-----------------------------
g ----------10-7-5—(5)/7---5-3-0--0-3-0-
D --------------------------------------
A --------------------------------------
E --------------------------------------


e --------------------------------------
h --11-10-8-8-8-------------------------
g --------------10—(10)/12--10-7-5------
D --------------------------------------
A --------------------------------------
E --------------------------------------


e --------------------------------------
h --11-10-8-----------------------------
g ----------10-7-5—(5)/7---5-3-0--0-3-0-
D --------------------------------------
A --------------------------------------
E --------------------------------------


e --------------------------------------
h --------------------------------------
g -0-3-5-(5)/7--7-7--5-5-5--(5)/7-------
D --------------------------------------
A --------------------------------------
E --------------------------------------

--

e --------------------------------------
h --11-10-8-----------------------------
g ----------10-7-5—(5)/7---5-3-0--0-3-0-
D --------------------------------------
A --------------------------------------
E --------------------------------------


e --------------------------------------
h --11-10-8-8-8-------------------------
g --------------10—(10)/12--10-7-5------
D --------------------------------------
A --------------------------------------
E --------------------------------------


e --------------------------------------
h --11-10-8-----------------------------
g ----------10-7-5—(5)/7---5-3-0--0-3-0-
D --------------------------------------
A --------------------------------------
E --------------------------------------

[ Tab from: http://www.guitartabs.cc/tabs/a/amorf_ordogok/nagy_meleg_pulver_tab.html ]
e --------------------------------------
h --------------------------------------
g -0-3-5-(5)/7--7-7--5-5-5--(5)/7-------
D --------------------------------------
A --------------------------------------
E --------------------------------------


Verse 3  (no guitar)
Nagy meleg pulóver ma a szerelem,
Ez vajon tényleg az vagy csak azt hiszem,
A végén úgyis kiderül,
Hogy becsaptuk magunkat, megint egyedül


Verse 4  (no guitar)
Kell folytatni néhány perc alatt
Az aranysárga napból bíbor alkonyat
Lett és száll a teagőz
A parkban fákat színez egy cerkával az ősz.


Outro
e --------------------------------------
h --11-10-8-----------------------------
g ----------10-7-5—(5)/7---5-3-0--0-3-0-
D --------------------------------------
A --------------------------------------
E --------------------------------------


e --------------------------------------
h --11-10-8-8-8-------------------------
g --------------10—(10)/12--10-7-5------
D --------------------------------------
A --------------------------------------
E --------------------------------------


e --------------------------------------
h --11-10-8-----------------------------
g ----------10-7-5—(5)/7---5-3-0--0-3-0-
D --------------------------------------
A --------------------------------------
E --------------------------------------


e --------------------------------------
h --------------------------------------
g -0-3-5-(5)/7--7-7--5-5-5--(5)/7-------
D --------------------------------------
A --------------------------------------
E --------------------------------------

--

e --------------------------------------
h --11-10-8-----------------------------
g ----------10-7-5—(5)/7---5-3-0--0-3-0-
D --------------------------------------
A --------------------------------------
E --------------------------------------


e --------------------------------------
h --11-10-8-8-8-------------------------
g --------------10—(10)/12--10-7-5------
D --------------------------------------
A --------------------------------------
E --------------------------------------


e --------------------------------------
h --11-10-8-----------------------------
g ----------10-7-5—(5)/7---5-3-0--0-3-0-
D --------------------------------------
A --------------------------------------
E --------------------------------------


e --------------------------------------
h --------------------------------------
g -0-3-5-(5)/7--7-7--5-5-5--(5)/7-------
D --------------------------------------
A --------------------------------------
E --------------------------------------

--

e --------------------------------------
h --11-10-8-----------------------------
g ----------10-7-5—(5)/7---5-3-0--0-3-0-
D --------------------------------------
A --------------------------------------
E --------------------------------------


e --------------------------------------
h --11-10-8-8-8-------------------------
g --------------10—(10)/12--10-7-5------
D --------------------------------------
A --------------------------------------
E --------------------------------------


e --------------------------------------
h --11-10-8-----------------------------
g ----------10-7-5—(5)/7---5-3-0--0-3-0-
D --------------------------------------
A --------------------------------------
E --------------------------------------


e --------------------------------------
h --------------------------------------
g -0-3-5-(5)/7--7-7--5-5-5--(5)/7-------
D --------------------------------------
A --------------------------------------
E --------------------------------------

--

e --------------------------------------
h --11-10-8-----------------------------
g ----------10-7-5—(5)/7---5-3-0--0-3-0-
D --------------------------------------
A --------------------------------------
E --------------------------------------


e --------------------------------------
h --11-10-8-8-8-------------------------
g --------------10—(10)/12--10-7-5------
D --------------------------------------
A --------------------------------------
E --------------------------------------


e --------------------------------------
h --11-10-8-----------------------------
g ----------10-7-5—(5)/7---5-3-0--0-3-0-
D --------------------------------------
A --------------------------------------
E --------------------------------------


e --------------------------------------
h --------------------------------------
g -0-3-5-(5)/7--7-7--5-5-5--(5)/7-------
D --------------------------------------
A --------------------------------------
E --------------------------------------


That's it. csá!

--
Tamás Gergő
(esalyon freemail hu)
Comments