Amon Amarth - Versus The World Chords & Tabs

 

Versus The World Chords & Tabs

Amon Amarth Chords & Tabs

Version: 1 Type: Tab 1 rating
1 star 2 stars 3 stars 4 stars 5 stars
comments

Versus The World Tab

Band:  Amon Amarth
Album: Versus the World
Song:  Versus the World

Copyright (c)  MetalBlade Records 2002
Version 1.0 - 10/12/2004

Tabed By: Robin Lindström
Email: Roblin917@hotmail.com          

. = Palm Mute           " = Tremelo Picking

Enjoy the tab.........


0:00 Intro
|------------------------------------------------------------------------------
+------------------------------------------------------------------------------
|------------------------------------------------------------------------------
|--------------------7-7-7-------7-7-7-6-6-6-----------------------------------
+--9-9-9-9-9-9-9-9-9-------9-9-9-------------7-7-7-4-4-4-4-4-4-4-4-4-4-4-4-4-4-
|------------------------------------------------------------------------------
   . . . . . . . . . . . . . . . . . . . . . . . . . . . . . . . . . . . . . .
 [ just know theres 18 4's ]
-----------------------------|
-----------------------------+
-----------------------------|
-----------------------------|
-4-4-4-4-7-7-7-7-7-7---------+
-----------------------------|
 . . . . . . . . . .

0:29 Guitar1
|-------------------------------|---------------------------------|
+-------------------------------+---------------------------------+
|-------------------------------|---------------------------------|
|----7"-6"-7"-9"-6"-7"-6"-7"-9"-|----7"-6"-7"-9"-6"-7"-6"---------|
+-9"----------------------------+-9"----------------------0-0-0-0-+
|-------------------------------|-------------------------0-0-0-0-|
                                                          . . . .
Guitar2
|-------------------------------|
+-------------------------------+
|-------------------------------|
|-5"-------------3"-------6"-6"-|
+-5"-------------3"-------6"-6"-+
|-3"-------------1"-------4"-4"-|

0:58
|------------------------------------------------------------
+------------------------------------------------------------
|------------------------------------------------------------
|------------------------------------------------------------
+---------------------------------------7"-4"-3"-4"-3"-4"-0"-
|-000000000000/5\2-2"-1"-2"-1"-2"/5"-4"----------------------

-------------------------------------------|
-------------------------------------------+
-------------------------------------------|
-------------------------------------------|
----------------------7"-4"-3"-4"-3"-4"-0"-+
-2"-1"-2"-1"-2"/5"-4"----------------------|

1:31 Guitar1
|------------------------------|---------------------------------|---------|
+------------------------------+---------------------------------+---------+
|------------------------------|---------------------------------|---------|
|---7"-6"-7"-9"-6"-7"-6"-7"-9"-|----7"-6"-7"-9"-6"-7"-6"---------|---------|
+-9"---------------------------+-9"----------------------0-0-0-0-+-0-0-0-0-+
|------------------------------|-------------------------0-0-0-0-|-0-0-0-0-|
                                                         . . . .   . . . .
[ Tab from: http://www.guitartabs.cc/tabs/a/amon_amarth/versus_the_world_tab.html ]
Guitar2
|--------------------|---------|
+--------------------+---------+
|--------------------|---------|
|--------------------|---------|
+-3-2-3-2-3-2-3----6-+-0-0-0-0-+
|-1-0-1-0-1-0-1----4-|-0-0-0-0-|
                       . . . .
2:01
|------------------------------------|
+------------------------------------+
|------------------------------------|
|------------------------------------|
+------------------7"-4"-3-4-3-4"-0"-+
|-2"-1-2-1-2"/5"-4"------------------|

2:30 Guitar1
|-------------------------------|---------------------------------|
+-------------------------------+---------------------------------+
|-------------------------------|---------------------------------|
|----7"-6"-7"-9"-6"-7"-6"-7"-9"-|----7"-6"-7"-9"-6"-7"-6"---------|
+-9"----------------------------+-9"----------------------0-0-0-0-+
|-------------------------------|-------------------------0-0-0-0-|
                                                          . . . .

Guitar2
|--------------------|---------|
+--------------------+---------+
|--------------------|---------|
|--------------------|---------|
+-3-2-3-2-3-2-3----6-+-0-0-0-0-+
|-1-0-1-0-1-0-1----4-|-0-0-0-0-|
                       . . . .

2:59 Guitar1          My favorite part!
|---------|
+---------+
|---------|
|---------|
+-0-0-0-0-+
|-0-0-0-0-|
  . . . .

Guitar2 start at 3:16
|------------------------------------------------------------------------------
+------------------------------------------------------------------------------
|------------------------------------------------------------------------------
|--------------------7-7-7-------7-7-7-6-6-6-----------------------------------
+--9-9-9-9-9-9-9-9-9-------9-9-9-------------7-7-7-4-4-4-4-4-4-4-4-4-4-4-4-4-4-
|------------------------------------------------------------------------------
   . . . . . . . . . . . . . . . . . . . . . . . . . . . . . . . . . . . . . .
 [ just know theres 18 4's ]
----------------------------|
----------------------------+
----------------------------|
----------------------------|
-4-4-4-4-7-7-7-7-7-7--------+
----------------------------|
 . . . . . . . . . .

3:45 Guitar1
|-------------------------------------|
+-------------------------------------+
|----------6"-------------------------|
|-6"\2"-6"----9"\4"/8"\4"/8"-9"-8"\4"-|
+-------------------------------------+
|-------------------------------------|

Guitar2
|------------------------------------|
+------------------------------------+
|------------------------------------|
|-4"--------/6-\3"--------6--7--6--4-|
+-4"--------/6-\3"--------6--7--6--4-+
|-2"--------/4-\1"--------4--5--4--2-|

4:14 Guitar1
|-----------------|
+-----------------+
|-9"-8"-7"-8"-5"--|
|-9"-8"-7"-8"-4"--|
+-----------------+
|-----------------|

Guitar2
|-----------------|
+-----------------+
|-----------------|
|-9--------7--2---|
+-7--------5--0---+
|-----------------|

4:43 Guitar1
|-----------|---------|
+-----------+---------+
|-----------|---------|
|-9-8-7-8-4-|-8-10-11-|
+-9-8-7-8-4-+---------+
|-----------|---------|

Guitar2
|-----------|---------|
+-----------+---------+
|-----------|---------|
|-----------|---------|
+-9-8-7-8-4-+---------+
|-9-8-7-8-4-|---------|

5:05 Outro Guitar1
|---------|
+---------+
|---------|
|-9-8-7-0-|
+-9-8-7-0-+
|---------|

Guitar2
|---------|
+---------+
|---------|
|---------|
+-9-8-7-0-+
|-9-8-7-0-|


IM NOT CLAIMING ITS PERFECT!!! But it's pretty close, I don't think I could
do any better if i tryed to improve it..
Comments