Amon Amarth - Friends Of The Suncross Chords & Tabs

 

Friends Of The Suncross Chords & Tabs

Amon Amarth Chords & Tabs

Version: 2 Type: Tab 0 ratings
1 star 2 stars 3 stars 4 stars 5 stars
comments

Friends Of The Suncross Tab

Tabbed by: Zach
Email: disturbed146968@yahoo.com

Riff A1 - Part 1
|--------------------------------------------------|
|--------------------------------------------------|
|--------------------------------------------------|
|-------7-8-10-8-7-5p7----------7-8-10-8-7-5p7-----|
|--5-5-5-5-5--5-5----------5-5-5-5-5--5-5----------|
|--------------------------------------------------|
-Guitar 2- Part 1                                              Play 1x
|--------------------------------------------------|
|--------------------------------------------------|
|--7----------------------7------------------------|
|--7----------------------5------------------------|
|--5----------------------5------------------------|
|--------------------------------------------------|


Riff A1 - part 2
|--------------------------------------------------|
|--------------------------------------------------|
|--------------------------------------------------|
|-------7-8-10-8-7-5s7------7-7-7-7-5-5s7----------|
|--------------------------------------------------|
|--6-6-6-6-6--6-6---------10-10-10-10--------------|
-Guitar 2- Part 1
|--------------------------------------------------|            play 1x
|--------------------------------------------------|
|--------------------------------------------------|
|--8-----------------------2-----------------------|
|--8-----------------------2-----------------------|
|--6-----------------------0-----------------------|
[ Tab from: http://www.guitartabs.cc/tabs/a/amon_amarth/friends_of_the_suncross_tab_ver_2.html ]
==========================================================
Riff A2 - Part 2
|--------------------------------------------------|
|--------------------------------------------------|
|--------------------------------------------------|
|-------7-8-10-8-7-5p7----------7-8-10-8-7-5p7-----|
|--5-5-5-5-5--5-5----------5-5-5-5-5--5-5----------|
|--------------------------------------------------|
-Guitar 2- Part 2                                            
|--------------------------------------------------|
|--------------------------------------------------|
|--7-----7------------------7-----7----------------|
|--7-----7------------------7-----7----------------|
|--5-----5------------------5-----5----------------|
|--------------------------------------------------|

                                                               play 2x
Riff A2 - Part 2
|--------------------------------------------------|
|--------------------------------------------------|
|--------------------------------------------------|
|-------7-8-10-8-7-5s7------7-7-7-7-5-5s7----------|
|--------------------------------------------------|
|--6-6-6-6-6--6-6---------10-10-10-10--------------|
-Guitar 2- Part 2
|--------------------------------------------------|
|--------------------------------------------------|
|--------------------------------------------------|
|--8----8-----------------2----2-------------------|
|--8----8-----------------0----0-------------------|
|--6----6-----------------0----0-------------------|

=======================================================

Riff B  Part 1 
|--------------------------------------------------|
|--------------------------------------------------|
|--------------------------------------------------|
|--------------------------------------------------|
|---5"--8"-7"-3"-5"-8"-7"-8"-12"-13"-12"-10"-8"-7"-|
|--------------------------------------------------|

Riff B Guitar 2
|----------------------------------------------------|
|----------------------------------------------------|
|----------------------------------------------------|
|---7"-10"-9"-5"-7"-10"-9"-10"-14"-15"-14"-12"-10--9"|
|---7"-10"-9"-5"-7"-10"-9"-10"-14"-15"-14"-12"-10--9"|
|---5"--8"-7"-3"-5"--8"-7"--8"-12"-13"-12"-10"--8"-7"|
Comments