Amon Amarth - Friends Of The Suncross Chords & Tabs

 

Friends Of The Suncross Chords & Tabs

Amon Amarth Chords & Tabs

Version: 1 Type: Tab 0 ratings
1 star 2 stars 3 stars 4 stars 5 stars
comments

Friends Of The Suncross Tab

   
 (AMON AMARTH) - (FRIENDS OF THE SUNCROSS)
                     From the Album (ONCE SENT FROM THE GOLDEN HALL)
              Copyright (METALBLADE 1997)
                     Version 1.0 - (OCTOBER-2001)

Transcribed by: (OLA SJ÷BERG)

For Questions, Comments, Newest Version, or Corrections contact
(OLA SJ÷BERG): at (ola@sjoberg.tf)



..  - palm mute          /  - slide up to
 \  - slide down to      ~  - vibrato
 h  - hammer on          b  - bend
 p  - pull off            Suffixes for bend
                          ph - pinch harmonic
                           f - full bend    h - half bend
*  - see comment           r - release      t - tap bend
X  - percussion mute       ~ - vibrato bend
@  - slight palm mute     () - ghost note, sustained note

Tune Gtr to (Normaltuning ?)

(FRIENDS OF THE SUNCROSS)OBS!!!This is not the complete song.
[ Tab from: http://www.guitartabs.cc/tabs/a/amon_amarth/friends_of_the_suncross_tab.html ]
Riff A1
|--------------------------------------------------------------------|
|--------------------------------------------------------------------|
|--------------------------------------------------------------------|
|-------7-8-10-8-7-5-7------7-8-10-8-7-5-7---------------------------|
|--5-5-5---------------5-5-5-----------------------------------------|
|--------------------------------------------------------------------|


Riff A2
|--------------------------------------------------------------------|
|--------------------------------------------------------------------|
|--------------------------------------------------------------------|
|-------7-8-10-8-7-5-7------7-7-7-7--5-5--7--------------------------|
|--------------------------------------------------------------------|
|--6-6-6---------------10-10-----------------------------------------|

Riff B         1st   2nd
|-------------|-----|--------------------------------------------------|
|-------------|-----|--------------------------------------------------|
|-------------|-----|--------------------------------------------------|
|-------------|-----|--------------------------------------------------|
|---5"--8"-7"-|-3"--|--8"--12"--13"-12"-10"-8"-7"----------------------|
|-------------|-----|--------------------------------------------------|
Comments