Amon Amarth - Fate Of Norns Chords & Tabs

 

Fate Of Norns Chords & Tabs

Amon Amarth Chords & Tabs

Version: 1 Type: Tab 0 ratings
1 star 2 stars 3 stars 4 stars 5 stars
comments

Fate Of Norns Tab

   
--------------------The Fate of Norns --------------------------
		------Amon Amarth-------


Song Title: The Fate of Norns
Band Name: Amon Amarth
Album: The Fate of Norns
Tabbed by: Scott Benedict
Email: turylon69@hotmail.com                              


Guitar Tuning : B E A D F# B 

Legend:

- = Palm Mute
() = Sustain Note
tr = Trill

Comments:

This song was quite annoying to tab, at some parts of the song the guitarist
seems to be toying with tremolo lasts. With this song you need to time everything
I am sure i got this right, Im really sorry I didn't have the patience to secure the timing
but if you need help contact me, im more than willing to help. This tab is done by hand so 
you know it wasn't rushed. Amon Amarth is a great band, buy their cd's if you dont have it.





Intro
  
Gtr I
    
|----------------------------|----------------------------|
|----------------------------|----------------------------|
|----------------------------|----------------------------|
|----------------------------|----------------------------|
|--------11---11-------9---9-|-------11---11-------9---9--|
|--9-9-9----9----9-9-9---9---|-9-9-9----9----9-9-9---9----|
   - - -    -    - - -   -     - - -    -    - - -   -

Verse
   
Gtrs I, II
    
|----------------------------|-------------------------|
|----------------------------|-------------------------|
|----------------------------|-------------------------|
|----------------------------|-------------------------|
|--------11---11-------9---9-|-------7---7-------6---6-|
|--9-9-9----9----9-9-9---9---|-9-9-9---9---9-9-9---9---|
    - - -    -    - - -   -     - - -    -    - - -   -


  
    							6x
|-------------------------|--------------------------|
|-------------------------|--------------------------|
|-------------------------|--------------------------|
|-------------------------|--------------------------|
|-------9---9-------6---6-|-------9---9-------6---6--|
|-7-7-7---7---7-7-7---7---|-7-7-7---7---7-7-7---7----|
  - - -   -   - - -   -     - - -   -   - - -   -   


Chorus
    
Gtr I
   
|-------------------------------|-----------------------2-----|
|--2----------------------4-----|-5-------2-----5-------------|
|-------------------------------|-----------------------------|
|-------------------------------|-----------------------------|
|-------------------------------|-----------------------------|
|-------------------------------|-----------------------------|

   
   
|-------------------------------|-----------------------------|
|-------------------------------|-----------------------------|
|-------------------------------|-----------------------------|
|--6--(6)-6-6-6-6-6-(6)-6-6-6-6-|-6-(6)-6-6-6-6-6-(6)-6-6-6-6-|
|--4--(4)-4-4-4-4-4-(4)-4-4-4-4-|-4-(4)-4-4-4-4-4-(4)-4-4-4-4-|
|-------------------------------|-----------------------------|


                           
                               
|-4---------------------------|------------------------------|
|-----------------------------|-4----------------------------|
|-----------------------------|------------------------------|
|-----------------------------|------------------------------|
|-----------------------------|------------------------------|
|-----------------------------|------------------------------|

|-----------------------------|------------------------------|
|-----------------------------|------------------------------|
|-----------------------------|------------------------------|
|-4-(4)-4-4-4-4-4-(4)-4-4-4-4-|-4-(4)-4-4-4-4-4-(4)-4-4-4-4--|
|-2-(2)-2-2-2-2-2-(2)-2-2-2-2-|-2-(2)-2-2-2-2-2-(2)-2-2-2-2--|
|-----------------------------|------------------------------|


  
|------------------------------|-----------------------------|
|-5----------------------4-----|-5-------2-----4-------5-----|
|------------------------------|-----------------------------|
|------------------------------|-----------------------------|
|------------------------------|-----------------------------|
|------------------------------|-----------------------------|

|------------------------------|-----------------------------|
|------------------------------|-----------------------------|
|------------------------------|-----------------------------|
|-2--(2)-2-2-2-2-2-(2)-2-2-2-2-|-2-(2)-2-2-2-2-2-(2)-2-2-2-2-|
|-0--(0)-0-0-0-0-0-(0)-0-0-0-0-|-0-(0)-0-0-0-0-0-(0)-0-0-0-0-|
|------------------------------|-----------------------------|


  
|-----------------------------|--------------------------------|
|-4---------------------------|-0------------------------------|
|-----------------------------|--------------------------------|
|-----------------------------|--------------------------------|
|-----------------------------|--------------------------------|
|-----------------------------|--------------------------------|

|-----------------------------|--------------------------------|
|-----------------------------|--------------------------------|
|-----------------------------|--------------------------------|
|-4-(4)-4-4-4-4-4-(4)-4-4-4-4-|-4-(4)-4-4-4-4-4-(4)-4-4-4-4----|
|-2-(2)-2-2-2-2-2-(2)-2-2-2-2-|-2-(2)-2-2-2-2-2-(2)-2-2-2-2----|
|-----------------------------|--------------------------------|


Verse
    
Gtrs I, II
    
|----------------------------|-------------------------|
|----------------------------|-------------------------|
|----------------------------|-------------------------|
|----------------------------|-------------------------|
|--------11---11-------9---9-|-------7---7-------6---6-|
|--9-9-9----9----9-9-9---9---|-9-9-9---9---9-9-9---9---|
    - - -    -    - - -   -     - - -   -   - - -   -

   4x
|-------------------------|--------------------------|
|-------------------------|--------------------------|
|-------------------------|--------------------------|
|-------------------------|--------------------------|
|-------9---9-------6---6-|-------9---9-------6---6--|
|-7-7-7---7---7-7-7---7---|-7-7-7---7---7-7-7---7----|
  - - -   -   - - -   -     - - -   -   - - -   -

Interlude
    
Gtrs I, II
    
|--------------------------|-----------------------------|
|--------------------------|-----------------------------|
|--------------------------|-----------------------------|
|--------------------------|-----------------------------|
|--------7---7-------9---9-|-------10---10-------12---12-|
|--0-0-0---0---0-0-0---0---|-0-0-0----0----0-0-0----0----|
    - - -   -   - - -   -     - - -    -    - - -    -

 
|-------------------------|-------------------------|
|-------------------------|-------------------------|
|-------------------------|-------5---5-------7---7-|
|-------7---7-------9---9-|-------------------------|
|-5-5-5---5---5-5-5---5---|-5-5-5---5---5-5-5---5---|
|-------------------------|-------------------------|
  - - -   -   - - -   -     - - -   -   - - -   -
[ Tab from: http://www.guitartabs.cc/tabs/a/amon_amarth/fate_of_norns_tab.html ]
  
|-------------------------|-------------------------|
|-------------------------|-------------------------|
|-------------------------|-------4---4-------5---5-|
|-------5---5-------7---7-|-------------------------|
|-3-3-3---3---3-3-3---3---|-3-3-3---3---3-3-3---3---|
|-------------------------|-------------------------|
  - - -   -   - - -   -     - - -   -   - - -   -

   4x
|-------------------------|--------------------------|
|-------------------------|--------------------------|
|-------4---4-------------|-------4---4-------7---7--|
|-------------------4---4-|--------------------------|
|-2-2-2---2---2-2-2---2---|-2-2-2---2---5-5-5---5----|
|-------------------------|--------------------------|
  - - -   -   - - -   -     - - -   -   - - -   -

    
Gtr I
    
|------------|-------------|-------------|-------------|
|------------|-------------|-------------|-------------|
|------------|--------2----|-(2)----4----|--5-----0----|
|--2----4----|--5----------|-------------|-------------|
|------------|-------------|-------------|-------------|
|------------|-------------|-------------|-------------|
   
Gtr II
   
|------------|-------------|-------------|-------------|
|------------|-------------|-------------|-------------|
|------------|-------------|-------------|-------------|
|--5---------|-(5)---------|--2----------|-(2)---------|
|--3---------|-(3)---------|--0----------|-(0)---------|
|------------|-------------|-------------|-------------|


  
|-----------|-------------|-------------|---------|
|-----------|-------------|-------------|---------|
|-0----2----|--4-----5----|-(5)----4----|--7------|
|-----------|-------------|-------------|---------|
|-----------|-------------|-------------|---------|
|-----------|-------------|-------------|---------|

|-----------|-------------|-------------|---------|
|-----------|-------------|-------------|---------|
|-----------|-------------|-------------|---------|
|-----------|-------------|--4----------|-(4)-----|
|-3---------|-(3)---------|--2----------|-(2)-----|
|-1---------|-(1)---------|-------------|---------|


  
|-----------|-------------|-----------|--------|
|-----------|-------------|-----------|--------|
|-0----2----|-------------|-5----4----|--7-----|
|-----------|-------------|-----------|--------|
|-----------|-3-3-3-3-3-3-|-----------|--------|
|-----------|-1-1-1-1-1-1-|-----------|--------|

|-----------|-------------|-----------|--------|
|-----------|-------------|-----------|--------|
|-----------|-------------|-----------|--------|
|-----------|-------------|-4---------|-(4)----|
|-3---------|-3-3-3-3-3-3-|-2---------|-(2)----|
|-1---------|-1-1-1-1-1-1-|-----------|--------|


Bridge
  
  
|-------------------------|-------------------------|
|-------------------------|-------------------------|
|-------------------------|-------------------------|
|-------------------------|-------------------------|
|-------------------------|-------------------------|
|-0-0-0-0-0-0-0-0-0-0-0-0-|-0-0-0-0-0-0-0-0-0-0-0-0-|
  - - - - - - - - - - - -   - - - - - - - - - - - -

Interlude
    
Gtrs I, II
    
||--------------------------|-------------------------|
||o-------------------------|-------------------------|
||--------------------------|-------------------------|
||--------------------------|-------------------------|
||o-------2---2-------0---0-|-------------------------|
||--0-0-0---0---0-0-0---0---|-0-0-0-3-0-3-0-0-0-2-0-2-|
    - - -   -   - - -   -     - - -   -   - - -   -

  4x
|-------------------|--------------------||
|-------------------|--------------------||
|-------------------|--------------------||
|-6--6-----6-6--6-6-|-6--6-----6-6--6-6--||
|-4--4-(4)-4-4--4-4-|-4--4-(4)-4-4--4-4--||
|-4--4-(4)-4-4--4-4-|-4--4-(4)-4-4--4-4--||


Out-Chorus
    
Gtr I
    
||-------------------------------|-----------------------2-----|
||--2----------------------4-----|-5-------2-----5-------------|
||-------------------------------|-----------------------------|
||-------------------------------|-----------------------------|
||-------------------------------|-----------------------------|
||-------------------------------|-----------------------------|

Gtr II
   
||-------------------------------|-----------------------------|
||-------------------------------|-----------------------------|
||-------------------------------|-----------------------------|
||--6--(6)-6-6-6-6-6-(6)-6-6-6-6-|-6-(6)-6-6-6-6-6-(6)-6-6-6-6-|
||--4--(4)-4-4-4-4-4-(4)-4-4-4-4-|-4-(4)-4-4-4-4-4-(4)-4-4-4-4-|
||-------------------------------|-----------------------------|


  
|-4---------------------------|------------------------------|
|-----------------------------|-4----------------------------|
|-----------------------------|------------------------------|
|-----------------------------|------------------------------|
|-----------------------------|------------------------------|
|-----------------------------|------------------------------|

|-----------------------------|------------------------------|
|-----------------------------|------------------------------|
|-----------------------------|------------------------------|
|-4-(4)-4-4-4-4-4-(4)-4-4-4-4-|-4-(4)-4-4-4-4-4-(4)-4-4-4-4--|
|-2-(2)-2-2-2-2-2-(2)-2-2-2-2-|-2-(2)-2-2-2-2-2-(2)-2-2-2-2--|
|-----------------------------|------------------------------|


 
|------------------------------|-----------------------------|
|-5----------------------4-----|-5-------2-----4-------5-----|
|------------------------------|-----------------------------|
|------------------------------|-----------------------------|
|------------------------------|-----------------------------|
|------------------------------|-----------------------------|

|------------------------------|-----------------------------|
|------------------------------|-----------------------------|
|------------------------------|-----------------------------|
|-2--(2)-2-2-2-2-2-(2)-2-2-2-2-|-2-(2)-2-2-2-2-2-(2)-2-2-2-2-|
|-0--(0)-0-0-0-0-0-(0)-0-0-0-0-|-0-(0)-0-0-0-0-0-(0)-0-0-0-0-|
|------------------------------|-----------------------------|


             6x
|-----------------------------|--------------------------------|
|-4---------------------------|-0------------------------------|
|-----------------------------|--------------------------------|
|-----------------------------|--------------------------------|
|-----------------------------|--------------------------------|
|-----------------------------|--------------------------------|
 6x
|-----------------------------|--------------------------------|
|-----------------------------|--------------------------------|
|-----------------------------|--------------------------------|
|-4-(4)-4-4-4-4-4-(4)-4-4-4-4-|-4-(4)-4-4-4-4-4-(4)-4-4-4-4----|
|-2-(2)-2-2-2-2-2-(2)-2-2-2-2-|-2-(2)-2-2-2-2-2-(2)-2-2-2-2----|
|-----------------------------|--------------------------------|


The Outro is really confusing sometimes, its not tremelo work, its just fast alt. Picking.
Comments