Amon Amarth - Death In Fire Chords & Tabs

 

Death In Fire Chords & Tabs

Amon Amarth Chords & Tabs

Version: 1 Type: Tab 1 rating
1 star 2 stars 3 stars 4 stars 5 stars
comments

Death In Fire Tab

   
Band: Amon Amarth
Album: Versus The World
Song: Death In Fire

Copyright ©  Metal Blade Records
Version 1.0

Tabed By: Robin Lindström
Email: Roblin917@hotmail

Feel free to email if there's something you don't understand....Enjoy



Riff A (Intro)
|-----------------|
|-----------------|
|-----------------|
|2----------------|
|2---------9-10-7-|
|0---------7-8--5-|

Riff B (verse 1) (x4)
|-----------------------------------------------------------------------|------
|-----------------------------------------------------------------------|------
|-----------------------------------------------------------------------|------
|--7-9---7-9---12-10---10---9-10---7---7-9---7-9---12-10---10---9-10---7|---7-9
|-----------------------------------------------------------------------|-0----
|0-----0-----0-------0----0------0---0-----0-----0-------0----0------0--|------

|-------------------------------------------------------------------------------
|-------------------------------------------------------------------------------
|-------------------------------------------------------------------------------
|--7-9----7---7-9---7-9---7-9-9-9-9-9-9-9-9-9-9-9-9-9-10-10-10-10-10-10-10------
|0------0---0-----0-----0--------------------------------------------------5-5-5
|--------------------------------------------------------------------------3-3-3

|---------|
|---------|
|---------|
|---------|
|-5-5-5-5-|
|-3-3-3-3-|

Riff C x4
|-----------------------------------------------------------------------------
|-----------------------------------------------------------------------------
|-----------------------------------------------------------------------------
|-----------------------------------------------------------------------------
|2-2-2-2-2-2-2-2-2-2-2-2-2-2-2-2-2-2-2-2-2-2-2-2-9-10-7-2-2-2-2-2-2-2-2-2-2-2-
|0-0-0-0-0-0-0-0-0-0-0-0-0-0-0-0-0-0-0-0-0-0-0-0-7-8--5-0-0-0-0-0-0-0-0-0-0-0-
 p.m                                             o.p    p.m

|---------------------------------|
|---------------------------------|
|---------------------------------|
|---------------------------------|
|2-2-2-2-2-2-2-2-2-2-2-2-2-9-10-7-|
|0-0-0-0-0-0-0-0-0-0-0-0-0-7-8--5-|
                            o.p

Replay Riff B (verse 1) (x2)

Riff D x8 (I tap the A string with my fret hand and tap the E string with my
picking hand with the pick, I quickly place the pick on its side)
|-----------------------------------------------------------------------------
|-----------------------------------------------------------------------------
|-----------------------------------------------------------------------------
|-h7p0h7p0h7p0h7p0h7p0h7p0h7p0h7p0h5p0h5p0h5p0h5p0h2p0h2p0h2p0h2p0h3p0h3p0h3p0
|---10--10--10--10--10--10--10--10--10--10--10--10--5---5---5---5---5---5---5-
|-----------------------------------------------------------------------------

|-----------------|
|-----------------|
|-----------------|
|h5p0h5p0h5p0h5p0-|
|--7---7---7---7--|
|-----------------|

Riff E (Alternate Picking) (x4)
|-----------------------------------------------------------------------------
|-----------------------------------------------------------------------------
|-----------------------------------------------------------------------------
|14-14-14-14-14-14-14-14-14-14-14-14-14-12-12-12-12-10-10-10-10-10-10-10-10-10
|-----------------------------------------------------------------------------
|-----------------------------------------------------------------------------

|-----------------------------------------------------------------------------
|-----------------------------------------------------------------------------
|-----------------------------------------------------------------------------
|10-10-10-10-9-9-9-9-10-10-10-10-10-10-10-10-10-10-10-10-10-12-12-12-12-10-10-
|-----------------------------------------------------------------------------
|-----------------------------------------------------------------------------
[ Tab from: http://www.guitartabs.cc/tabs/a/amon_amarth/death_in_fire_tab.html ]
|-----------------------------------------------------------------------------
|-----------------------------------------------------------------------------
|-----------------------------------------------------------------------------
|10-10-10-9-9-9-9-7-7-7-7-12-12-12-12-12-12-12-12-12-12-10-10-10-10-9-9-9-9-9-
|-----------------------------------------------------------------------------
|-----------------------------------------------------------------------------

|-----------------------------------------------------------------------------
|-----------------------------------------------------------------------------
|-----------------------------------------------------------------------------
|9-9-9-9-9-9-9-9-9-9-9-9-9-9-9-9-9-9-9-9-9-9-9-9-9-9-9-9-9-9-9-9-9-9-10-10-10-
|-----------------------------------------------------------------------------
|-----------------------------------------------------------------------------

|---|
|---|
|---|
|10-|
|---|
|---|

Riff F (Intro Replay)
|-----------------|
|-----------------|
|-----------------|
|2----------------|
|2---------9-10-7-|
|0---------7-8--5-|

Behind The Solo
 (x4)
|-----------------------------------------------------------------------------
|-----------------------------------------------------------------------------
|-----------------------------------------------------------------------------
|-----------------------------------------------------------------------------
|-2-2-2-2-2-2-2-2-9-9-9-9-12-12-12-12-10-10-10-10-10-10-10-10-10-10-10--10-7-7
|-0-0-0-0-0-0-0-0-7-7-7-7-10-10-10-10-8--8--8--8--8--8--8--8--8--8--8---8--5-5

|-----|
|-----|
|-----|
|-----|
|-7-7-|
|-5-5-|


Solo
|-----------------------------------------------------------------------------
|---------------------------------------------------------------------------^^
|---------------------------------------------------------------------------14
|14-14-12h14p12-10-9-9-10-12-10----9-9-9-9-9-10-10-10-9-9-------14-17-14-17---
|-------------------------------12------------------------10-10---------------
|-----------------------------------------------------------------------------

|-----------------------------------------------------------------------------
|-----------------------------------------------------------------------------
|14----------14-16h17p16----------------14----16-17-16-21-21-19h21p19-17-16-16
|---17-14-17-------------17-14-17-14-17----17---------------------------------
|-----------------------------------------------------------------------------
|-----------------------------------------------------------------------------

|------------------------------------------------------------19---------------
|------------19-19-19-19-19-20-20-20-19-19-15-15-17-20-17-20----20-19-17-17-20
|17-19-16-17------------------------------------------------------------------
|-----------------------------------------------------------------------------
|-----------------------------------------------------------------------------
|-----------------------------------------------------------------------------

|-------19-------------17----20----20-19-------17----20-19-|
|17--20----20-19-17-17----17----17-------17-17----17-------|
|----------------------------------------------------------|
|----------------------------------------------------------|
|----------------------------------------------------------|
|----------------------------------------------------------|

|--------|
|--------|
|--------|
|--------|
|-9-10-7-|
|-7-8--5-|

Riff B (verse 1) (x2)
|-----------------------------------------------------------------------|------
|-----------------------------------------------------------------------|------
|-----------------------------------------------------------------------|------
|--7-9---7-9---12-10---10---9-10---7---7-9---7-9---12-10---10---9-10---7|---7-9
|-----------------------------------------------------------------------|-0----
|0-----0-----0-------0----0------0---0-----0-----0-------0----0------0--|------

|-------------------------------------------------------------------------------
|-------------------------------------------------------------------------------
|-------------------------------------------------------------------------------
|--7-9----7---7-9---7-9---7-9-9-9-9-9-9-9-9-9-9-9-9-9-10-10-10-10-10-10-10------
|0------0---0-----0-----0--------------------------------------------------5-5-5
|--------------------------------------------------------------------------3-3-3

|---------|
|---------|
|---------|
|---------|
|-5-5-5-5-|
|-3-3-3-3-|

|12b-12b-12b-12b-15b-15b-|
|------------------------|
|------------------------|
|------------------------|
|------------------------|
|------------------------|

|---------|
|---------|
|---------|
|---------|
|9-10-7-2-|
|7-8--5-0-|

Comments