Amigo Vicente - Ventanas Al Alma Chords & Tabs

 

Ventanas Al Alma Chords & Tabs

Amigo Vicente Chords & Tabs

Version: 1 Type: Tab 1 rating
1 star 2 stars 3 stars 4 stars 5 stars
comments

Ventanas Al Alma Tab

                               Ventanas al alma                                 


Piste 1
 http://membres.lycos.fr/guitarravicenteamigo/



                                                                            
E||-------------------------|------------0----------|--2----4---------2----|
B||--------9--------7-------|----------5------------|------------4---------|
G||------6---------------6--|--------5--------------|----------------------|
D||----7--------------------|------4----------------|----------------------|
A||--6----------------------|----3------------------|----------------------|
E||-------------------------|-----------------------|----------------------|


                                                                       
---------------------|--2--------------0--|---------------------------|
------2---------2----|--------------------|--5-4h5h4-2-0-----4--------|
-----------1---------|--------------------|--------------2-0----------|
---------------------|--------------------|---------------------------|
---------------------|--------------------|---------------------------|
---------------------|--------------------|---------------------------|


                                                                             
-------------------------------|--------------------|-----------------------|
--------2h-0-------0-----0-----|---------5--0-------|-----------------------|
------2------2h0-----4-----4---|--------------------|----------------5------|
----2------------3-----3-------|--------------------|--7----------7---------|
--0--------------------2-------|--------------------|----------6------------|
-------------------------------|--------------------|-------4---------------|


                                                                              
------------------------||--------7--------5---------|--------------------4--|
------------------------||------5------------5-4-----|-----------------------|
-----------------------*||----5----------------------|--6---4----------------|
----------6/-7/-6------*||--4--------------------4-4-|----4------------------|
-------6----------------||---------------------------|-----------------------|
----4-------------------||---------------------------|-----------0-----------|


                                                                        
----5----2----4------|--------------------|--5-7-7h9-7-5---------------|
---------------------|----------------7-5-|--------------10------------|
---------------------|--------------------|----------------------------|
---------------------|--------------------|-------------------------7--|
---------------------|--------------------|------0---------------------|
---------------------|--------------------|--------------------8-------|


                                                                    
--------------------|----------2--2h-3h-2h-0--|--------------------|
---------9----------|-------------------------|----------------2---|
----8---------------|-------------------------|-----------1--------|
--------------------|-------------------------|--------------------|
--------------------|-------------4-----------|--------------------|
--------------------|-------------------------|--------------------|


                                                                               
--------------------------0--|------------2--4/-5--|------------------0h8h0---|
------2--4--4/-5--------2----|---------------------|--------4---------------5-|
----------------------2------|---------------------|------4-------------------|
--------------------2--------|---------------------|----4---------------------|
------------------0----------|---------------------|--2-----------------------|
-----------------------------|---------------------|--------------------------|


                                                                            
-----------------------|--------0h2h0---0h2-4-------|----------------------|
---------5/-4----------|--------------4-------2-0-2-|--------------2-------|
--9---------------4----|----------------------------|-----------1----------|
-----------------------|----------------------------|--------2-------------|
-----------------------|----------------------------|-----0----------------|
---------------4-------|----------------------------|----------------------|


                                                                                
---------0--------------|-------------------------0-2-|------------------------|
------------4-----------|-----0--2h0-------0h2-4------|--7b-7-5----------------|
---------------3--------|------------3-1-3------------|---------6--------4-----|
---1--2-----------------|-----------------------------|---------------------7--|
------------------------|-----------------------------|------------------------|
------------------3-----|-----------------------------|------------------------|


                                                  
---------------------|---------------------------|
----------------4----|---------------------------|
--6------------------|------------5--------------|
--7----------------6-|----------7---7-------6----|
--7------------------|--------6-------6---6------|
---------------------|-----4------------4--------|


                                                                
------------0-----------0-----|----0-------0----------0--------|
--------------4h0---------2---|------2---2---2---4-------4h-2--|
------------------2h6h2-----2h|--4-----4-------6-2-------------|
----------2-------------------|------------------2-------------|
--------0---------------------|------------------0-------------|
------0-----------------------|--------------------------------|


                                                                     
--------0---------------4---------|-----------0-----0--------7-8-9--|
----------4h2-------2/4---4-2h0---|-------4-4-----4---7-9-10--------|
--4---4-------4---6---------------|----4--------6-------------------|
----4-----------4-----------------|--6------------------------------|
--------------------------------6-|---------------------------------|
----------------------------------|---------------------------------|


                                                                  
--4h2h0-------------0----------|--------0--------------------2-2h|
--------4-7-5h4h5-5---5h4-2----|------2---5/7/8-8--10h8h7-8------|
-------------------------------|----0----------------------------|
-------------------------------|---------------------------------|
-------------------------------|--0------------------------------|
-------------------------------|---------------------------------|


                                                      
--0-2h0-0----2h0---0-------|-------------------------|
----------4------4---------|---4---------------------|
---------------------------|-----3-------------------|
---------------------------|-------1-----------------|
---------------------------|---------1---------------|
---------------------------|-----------3-------------|


                                                               
--------7-10h7---9------6-7h6-|--9h7-5h4-7h5------------------|
------9----------9--9---------|----------------------4------4h|
-----------------9----9-------|--------------6-----6---6------|
------------------------------|-----------------5--------5----|
---------------0--------------|-------------------------------|
------------------------------|-------------------------------|


                                                                 
------------------------------|---------------------------------|
--5h4---4----5----4h5h4---4-5h|--4---4-5h7-4-7-7h5--5h7-4---4-5h|
------6-----------------6-----|----6----------------------6-----|
------------------------------|---------------------------------|
----------4-------------------|------------------4------------4-|
------------------------------|---------------------------------|

[ Tab from: http://www.guitartabs.cc/tabs/a/amigo_vicente/ventanas_al_alma_tab.html ]
                                                          
----------4-5h4-6h5-0---------|------------0--1-----4----|
---4---5----------------------|---5-----0--------4-------|
----------------------------4-|------2-------------------|
-------------------------2----|------------------------3-|
------------------------------|--------------------------|
------------------------------|--------------------------|


                                                               
-------0----0h1-0h1-0h1-3h2-5h3---|---------------------------|
-----5--------------------------2-|-------------2-------------|
---4------------------------------|-----------2---2---3h2-----|
----------------------------------|---------2-------2-------2-|
--------------------------------0-|-----------------------0---|
----------------------------------|---------------------------|


                                                                
------------0-----------0-----|----0-------0----------0--------|
--------------4h0---------2---|------2---2---2---4-------4h-2--|
------------------2h6h2-----2h|--4-----4-------6-2-------------|
----------2-------------------|------------------2-------------|
--------0---------------------|------------------0-------------|
------0-----------------------|--------------------------------|


                                                                     
--------0---------------4---------|-----------0-----0--------7-8-9--|
----------4h2-------2/4---4-2h0---|-------4-4-----4---7-9-10--------|
--4---4-------4---6---------------|----4--------6-------------------|
----4-----------4-----------------|--6------------------------------|
--------------------------------6-|---------------------------------|
----------------------------------|---------------------------------|


                                                                  
--4h2h0-------------0----------|--------0--------------------2-2h|
--------4-7-5h4h5-5---5h4-2----|------2---5/7/8-8--10h8h7-8------|
-------------------------------|----0----------------------------|
-------------------------------|---------------------------------|
-------------------------------|--0------------------------------|
-------------------------------|---------------------------------|


                                                            
--0-2h0-0----2h0---0-------|-------------0-----------------|
----------4------4---------|-----------4----4--------2h0---|
---------------------------|---------6-------------------2h|
---------------------------|-------5-----------------------|
---------------------------|-----0-------------------------|
---------------------------|---0---------------------------|


                                                                           
----------------------------7--------|------------------------------------|
-----------0-------10-9-7-----10-9-7-|------------------------------------|
---1---1-2---6-8-9--------9----------|---9-8-6----------------------5-5-5-|
-----4-------------------------------|---------9-7-6----------------7-7-7-|
-------------------------------------|---------------9-7-6----------6-6-6-|
-------------------------------------|---------------------9-7-5-4--4-4-4-|


                                                  
-----------------------|-------------------------|
-------------------2---|---------4---------------|
--5-5-----------1--2---|---1--2--4-----1--2------|
--7-7--------4-----2---|---------4---------------|
--6-6--------------0---|---------2-------------6-|
--4-4------------------|---------------------4---|


                                                       
--------4---------------------|-----------------------|
------4---4-------------------|-----------------------|
----4-------4-----------------|-----------------------|
--4-----------4---------------|---------------------2-|
----------------6-----0--2--4h|---2--1--2--0----------|
-------------------0----------|-----------------------|


                                                              
----------0--------2--1--0--|----------0-0-0-0---0-0-0-0---2-|
-------------3--4-----------|--4-----------------------------|
--2-1-----------------------|----------------------------4---|
------4---------------------|------------------6-------------|
--------2-------------------|-----2/-4-----------------------|
----------------------------|--------------------------------|


                                                                      
--2-2-2---4-4-4-4---4-4-4-4---5-5-|--5-2---4-4-4-4---4-4-4-4---2-2-2-|
----------------------------------|----------------2---------1-------|
----------------------------------|----------------------------------|
------------------2---------------|----------------------------------|
--------0-------------------4-----|----------------------------------|
----------------------------------|------4---------------------------|


                                                                      
--2---2-2-2-2-----2-2-2-2-----2-2-|--2-2-----------------------------|
--------------4/2---------2/1-----|----------1-1-1-2---2-2-2-2-----4-|
----------------------------------|------5/2---------1---------------|
----------------------------------|----------------------------3/4---|
----------------------------------|----------------------------------|
----4-----------------------------|----------------------------------|


                                                                          
------------------------------------|--0-0-0-0-------0-0-0-0---0-0-0-0---|
--4-4-4-----7-7-7-7---7-7-7h9-------|----------5h4-2---------4-----------|
------------------------------------|------------------------------------|
--------------------7---------------|------------------------------------|
--------5/6-------------------7h6-4-|----------------------------------4-|
------------------------------------|------------------------------------|


                                                                               
--0-0-0-0---------0--------7-11---9-|--9-9-9-------9-9-9-9----11-11-11-11---9-|
----------5h4h2-4---7-9-10----------|--------12h10----------------------------|
------------------------------------|----------------------11/------------9---|
------------------------------------|-----------------------------------------|
--------------------------------0---|-----------------------------------------|
------------------------------------|-----------------------------------------|


                                                                      
--9-9-9---7-7-7-7---5-5-5-5---7-7-|--7-7---7-7-7-7---7-7-7-7---7-7-7-|
----------------------------------|----------------7---------9-------|
--------8---------6---------------|----------------------------------|
----------------------------------|------9---------------------------|
----------------------------------|----------------------------------|
----------------------------0-----|----------------------------------|


                                                                     
--7---7-7-7-7---7-7-7-7---7-7-7-7-|----8-8-8-8---7-7-7-7-5--8h5-----|
----7-----------------------------|------------0---------5------8h7-|
--------------9-------------------|--0-------------------5----------|
----------------------------------|----------------------5h---------|
------------------------0---------|---------------------------------|
----------------------------------|---------------------------------|


                                                                    
------5h0----------------------------|-----------------------------|
--5--------4h3-1-0-1h0-------4-4-4-4-|--4--------------------------|
----8------------------2-1-0-2-2-2-2-|--2--------------4-----------|
-----------------------------4-4-4-4-|--4h3h2-------------4--------|
-----------------------------2-2-2-2-|--2-----6h5h4----------6-----|
-------------------------------------|--------------7-----------7--|


                                             
-----0------------------|------------------||
--------2---------------|------------------||
--1--------1------------|------------------||
--------------2---------|------------------||
-----------------2------|------------------||
------------------------|------------------||


Comments