Amigo Vicente - Sierra Del Agua Chords & Tabs

 

Sierra Del Agua Chords & Tabs

Amigo Vicente Chords & Tabs

Version: 1 Type: Tab 0 ratings
1 star 2 stars 3 stars 4 stars 5 stars
comments

Sierra Del Agua Tab

                                Sierra del Agua                                 


                                                                   Vivente Amigo
 http://membres.lycos.fr/guitarravicenteamigo/



                                                                         
E||----------------------|---------------------|------------------------|
B||----------------------|---------------------|------------------------|
G||------------0---0-----|-----------0---0-----|------------------------|
D||------0h2-4---4-4-----|-----0h2h4---4-4h----|--2h0---0---0---0-0-----|
A||----3-----------3-----|---3-----------3-----|------4---5---5---5/-4--|
E||--0-------------0-----|---------------0-----|------------------------|


                                                                       
--------4--------------|-----------------5h7-5---|--0---4----5h4-2----|
------2---2------------|---------------7-------7-|----3-3-------------|
----2-------2----------|--0--------5-7-----------|------0-------------|
--------------0--------|-------4-7---------------|------0-------------|
----------------4------|-----4-------------------|------0-------------|
--3---------------3----|-------------------------|------0-------------|


                                                                          
-----------------5h7-5---|--0---4----5h4-2----|------------------------0-|
---------------7-------7-|----3-3-------------|----------------0-0h7-5---|
--0--------5-7-----------|------0-------------|--------------------------|
-------4-7---------------|------0-------------|--0h7h0-0-----4-----------|
-----4-------------------|------0-------------|----------4h2-------------|
-------------------------|------0-------------|--------------------------|

[ Tab from: http://www.guitartabs.cc/tabs/a/amigo_vicente/sierra_del_agua_tab.html ]
                                                                       
--------------------|--------4--------------|-----------------5h7-5---|
--3h-7h3-2--1--3----|------2---2------------|---------------7-------7-|
--------------------|----2-------2----------|--0--------5-7-----------|
--------------------|--------------0--------|-------4-7---------------|
--------------------|----------------4------|-----4-------------------|
--------------------|--3---------------3----|-------------------------|


                                                                      
--0---4----5h4-2----|-----------------5h7-5---|--0-----4h-2-2h1-4h2--|
----3-3-------------|---------------7-------7-|-----3--3-------------|
------0-------------|--0--------5-7-----------|--------0-------------|
------0-------------|-------4-7---------------|--------0-------------|
------0-------------|-----4-------------------|--------0-------------|
------0-------------|-------------------------|--------0-------------|


                                                                      
----------------------|-----------------------|----------------------|
----------------------|-----------------------|--------------------0-|
--------------0---0---|---------------0---0---|----------------------|
--------0h2h4---4-4h--|---2h0---0h2-4---4-4---|---0h7h0-0--------4---|
------3-----------3---|-------3-----------3---|-----------4-2--------|
----0-------------0---|-----------------------|----------------------|


                                                                      
--------0--------------|----------------------|----------------------|
--0h7-5----3h7h3-2--1--|--3--------2----------|----------------------|
-----------------------|---------2---2--------|--------------0---0---|
-----------------------|-------0-------0------|--------0h2-4---4-4---|
-----------------------|-----------------4----|------3-----------3---|
-----------------------|-------------------3--|----0-------------0---|


                                                           
-----------------------|------------------|--------------||
-----------------------|------------------|--------------||
-----------------0---0-|------------------|--------------||
-----2h0---0h2h4---4-4h|----0h7h0-0-------|--------------||
---------3-----------3-|------------------|--------------||
-----------------------|------------------|--------------||


Comments