Amigo Vicente - Reino De Silia Chords & Tabs

 

Reino De Silia Chords & Tabs

Amigo Vicente Chords & Tabs

Version: 1 Type: Tab 1 rating
1 star 2 stars 3 stars 4 stars 5 stars
comments

Reino De Silia Tab

                                Reino de Silia                                  


                                                                   Vicente Amigo
 http://membres.lycos.fr/guitarravicenteamigo/



                                                                       
E||---4-4-4-4-4-4-4-4-3--3--|--0----------------|---------------------|
B||---2-2-2-2-2-2-2-2-2--2--|-----4----4--2--2--|--0--0--0--0h-4--4h2h|
G||*--3-3-3-3-3-3-3-3-3--3--|-----3----3--3--3--|-----3--3--3-----3---|
D||*--1-1-1-1-1-1-1-1-1--1--|-----1----1--1--1--|-----1--1--1-----1---|
A||---1-1-1-1-1-1-1-1-1--1--|-----1----1--1--1--|-----1--1--1-----1---|
E||-------------------------|-------------------|---------------------|


                                                                    
---------------------||--6-6-6-6-6-6-6-6-6--6--|----6--6--6--6--6--|
----0--0--4h2-0--0---||--7-7-7-7-7-7-7-7-7--7--|----7--7--7--7--7--|
-------3--3---3--3--*||--7-7-7-7-7-7-7-7-7--7--|----7--7--7--7--7--|
-------1--1---1--1--*||--6-6-6-6-6-6-6-6-6--6--|----6--6--6--6--6--|
-------1--1---1--1---||--7-7-7-7-7-7-7-7-7--7--|----7--7--7--7--7--|
---------------------||--0-0-0-0-0-0-0-0-0--0--|----0--0--0--0--0--|


                                                           
--6--6--6--6--6--6--|--------------|---------0----0----0--|
--7--7--7--7--7--7--|--------------|-------0------0-------|
--7--7--7--7--7--7--|--------------|-----1--------1-------|
--6--6--6--6--6--6--|--------------|--2--------4----------|
--7--7--7--7--7--7--|--------------|----------------------|
--0--0--0--0--0--0--|--------------|----------------------|


                                                                             
---------0----0--------|-------------------|-----------------|--------------|
-------4---------------|-------------------|----4--4----4----|--------------|
--6--6--------------0--|-------------------|----3--3----3----|--------------|
-----------8-----5-----|--6----------5-----|----1--1----1----|--------------|
-----------------------|----------7-----6--|----1--1----1----|--------------|
-----------------------|-----0-------------|-----------------|--------------|


                                                                     
----7----7------|----7--7--7------|-----------------|---------------|
----9----9------|----9--9--9------|--------7--------|------9--------|
----8----8------|----8--8--8------|-----------9--8--|------8--------|
----9----9------|----9--9--9------|-----------------|------8--------|
----7----7------|----7--7--7------|-----------------|------6--------|
----0----0------|----0--0--0------|-----------------|---------------|


                                                          
-------------------|----------0---0----|----------0------|
----7--5--5h4------|--------7---4---5--|----4------------|
-------------------|-------------------|-------6--6------|
-------------------|-------------------|----------6------|
-------------------|-------------------|----------4------|
-------------------|-------------------|-----------------|


                                                                 
--0-0-0-0-0-0-0-0-0--0--|----0--0--0--0--0--|----------0---0----|
--8-8-8-8-8-8-8-8-8--8--|----8--8--8--8--8--|--------8---4---5h-|
--6-6-6-6-6-6-6-6-6--6--|----6--6--6--6--6--|-------------------|
--5-5-5-5-5-5-5-5-5--5--|----5--5--5--5--5--|-------------------|
--4-4-4-4-4-4-4-4-4--4--|----4--4--4--4--4--|-------------------|
------------------------|-------------------|-------------------|


                                                            
------------------|------0---0---------|-------------------|
----4-----8----8--|----8---4---5h---4--|-----8----8--8--8--|
-------6--6----6--|--------------------|--6--6----6--6--6--|
----------5----5--|--------------------|-----5----5--5--5--|
----------4----4--|--------------------|-----4----4--4--4--|
------------------|--------------------|-------------------|


                                                                       
--------------------------|----------------|----0-------0-------------|
--8-8-5-4---0-------------|-----4----------|------0-------0-----------|
--6-------6---3-1-0h4-0---|-----3----------|--------3-------3---------|
--5---------------------2-|--1--1----------|--6-------4-----------6h4h|
--4-----------------------|-----1----------|--------------------2-----|
--------------------------|----------------|------------------0-------|


                                                                      
-------------------0h4h|--0---0--------------------|----2--2--2------|
-----------------------|----5---5-5-5h4-4h2-2h0----|----2--2--2------|
------------3-4--------|------------------------3--|----3--3--3------|
--2---2-4h6------------|---------------------------|----4--4--4------|
----6------------------|---------------------------|----4--4--4------|
-----------------------|---------------------------|----2--2--2------|


                                                                       
----0-------0-------------|----------------------|--------------------|
------0-------0-----------|----------------------|--------------------|
--------3-------3---------|------------3-4----4--|--3-----0--4--------|
--6-------4-----------6-4h|--2---2-4h6---2-------|-----6--------2--1--|
--------------------2-----|----6---------2-------|--------------------|
------------------0-------|----------------------|--------------------|


                                                                   
---------------|---------0--------0-----|----0-------0--------0h4h|
--------4------|-------4------------4---|------4-------4----------|
--------3------|--6--6-----3--4-------4-|--------4-------4--------|
--------1------|------------------------|--6-------4--------------|
--------1------|------------------------|-------------------------|
---------------|------------------------|------------------0------|


                                                                   
--0---0--------------------|----2--2--2------|-----------------0--|
----5---5-5-5h4-4h2-2h0----|----2--2--2------|------0-2-4-0----0--|
------------------------3--|----3--3--3------|----3------------1--|
---------------------------|----4--4--4------|-----------------2--|
---------------------------|----4--4--4------|-----------------2--|
---------------------------|----2--2--2------|-----------------0--|


                                                            
-----------------2--|----2---------------|----0--0----0----|
--------0-2------2--|----2---------------|----0--0----0----|
----1-3-----3----3--|----3--------3-4----|----1--1----1----|
-----------------4--|----4----4-6-----6/-|----2--2----2----|
-----------------4--|----4---------------|----2--2----2----|
-----------------2--|----2---------------|----0--0----0----|


                                                         
-----------------------0-0--|----------------------0-0--|
-----------------------0-0--|----------------------0-0--|
----------------------------|--------------3--4---------|
--------9--8h-9--11---------|--------4h-6---------------|
-----7----------------------|-----4---------------------|
--0-------------------------|--2------------------------|


                                                          
--------------------0--------|-----0--------0-------0-0--|
-----------------------------|-----------0-----4----4-4--|
-----------------3-----0-----|--------3------------------|
--------2--4h-6-----------2--|--1------------------------|
-----2-----------------------|---------------------------|
--0--------------------------|---------------------------|


                                                                           
-----0--------0-------0-0--|-----0--------0---------|---------------------|
-----------0-----2----2-2--|-----------0------------|--------7-7--5-5--4--|
--------3------------------|--------3--------4------|--------6-6--4-4--3--|
--1------------------------|--1---------------------|----0h4-4-4--2-2--1--|
---------------------------|------------------------|--------4-4--2-2--1--|
---------------------------|------------------------|--------6-6--4-4--3--|


                                                                             
--------------|--0--------------0--|----0--------------|--------------0-----|
--------------|--5-----------------|----5--------------|--------------------|
--------------|--4-----------------|----4-----------4--|--------------------|
--------------|--6--8h-4--6--------|----8h-4--6--------|--8--4--6-----------|
--------------|--------------4-----|-------------4-----|-----------4--------|
--------------|--------------------|-------------------|-----------------0--|


                                                                               
----------0----0--|-------------------|----------------0--|----0--------------|
---------------5--|-------------------|-------------------|----5--------------|
---------------4--|----------------4--|-------------------|----4--------------|
---------------6--|----8h-4--6--------|--8--4--6----------|----8h-4--6--------|
--7---------------|-------------4-----|-----------4-------|-------------4--7/-|
-----2------------|-------------------|-------------------|-------------------|


                                                            
-----------0----0--|----------------0--|----0--------------|
----------------5--|-------------------|----5--------------|
----------------4--|-------------------|----4-----------4--|
----------------6--|----8h-4--6--------|----8h-4--6--------|
--10--6------------|-------------4-----|-------------4-----|
-------------------|-------------------|-------------------|


                                                                               
--------------0-----|---------0----0--|----------------0--|----0--------------|
--------------------|--------------5--|-------------------|----5--------------|
--------------------|--------------4--|-------------------|----4-----------4--|
--8--4--6-----------|--------------6--|----8h-4--6--------|----8h-4--6--------|
-----------4--------|-----------------|-------------4-----|-------------4-----|
-----------------0--|----2------------|-------------------|-------------------|


                                                                
--------------0-----|-----------------|------------------------|
--------------------|-----------------|--8-8-8-8-8-8-8-8-8--8--|
--------------------|-----------------|--8-8-8-8-8-8-8-8-8--8--|
--8--4--6-----------|-----------------|--8-8-8-8-8-8-8-8-8--8--|
-----------4-----7/-|--10--6----------|--6-6-6-6-6-6-6-6-6--6--|
--------------------|-----------------|------------------------|


                                                                            
-------------------|------------------|---------------|--------------------|
----8--8--8--8--8--|----8----8--8--8--|----8----------|------4-5--7-7--6-6-|
----8--8--8--8--8--|----8----8--8--8--|----8----------|------3-4--6-6--5-5-|
----8--8--8--8--8--|----8----8--8--8--|----8----------|------1-2--4-4--3-3-|
----6--6--6--6--6--|----6----6--6--6--|----6----------|------1-2--4-4--3-3-|
-------------------|------------------|---------------|------3-4--6-6--5-5-|


                                                            
----------------------|---------------------|--------------|
--6--8--7-7-7--8--7-7-|--7--5--4-4-4--5--4--|--------------|
--5--7--6-6-6--7--6-6-|--6--4--3-3-3--4--3--|--------------|
--3--5--4-4-4--5--4-4-|--4--2--1-1-1--2--1--|--------------|
--3--5--4-4-4--5--4-4-|--4--2--1-1-1--2--1--|--------------|
--5--7--6-6-6--7--6-6-|--6--4--3-3-3--4--3--|--------------|


                                                                             
--------------------|-------------------|-----------------0--|--------------|
--------4h0---------|-------------------|--------9/-7--7--0--|--------------|
------7-------------|-------------------|-----7--------7--7--|--------------|
----8-------8h---6--|--6--6h-5----------|--6-----------6--6--|--------------|
--------------------|----------------7--|--------------7--7--|--------------|
--------------------|-----------0-------|-----------------0--|--------------|


                                                                                
--------------------|-------------------|--------------------|-----------------|
--------4h0---------|-------------------|--------9---7---0---|-----------------|
------7-------------|-------------------|-----7--7---7---7---|------------6-8--|
----8-------8h---6--|--6--6h-5----------|--6-----6---6---6---|-----------------|
--------------------|----------------7--|--------7---7---7---|-----------------|
--------------------|-----------0-------|--------------------|-----------------|


                                                                  
---------------10--12--14h-12--10--|-------------10--------------|
--------9--11----------------------|--12--11--9------12--11------|
--7--9-----------------------------|-----------------------------|
-----------------------------------|-----------------------------|
-----------------------------------|-----------------------------|
-----------------------------------|-----------------------------|


                                                              
---------------------|----------------0--|--0----0--0--0--0--|
--9/-8--9h-8--9-8-9--|----9h-8--8/-5--5--|--5----5--5--5--5/-|
---------------------|----------------6--|--6----6--6--6--6/-|
---------------------|----------------7--|--7----7--7--7--7/-|
---------------------|-------------------|-------------------|
------------------0--|-------------------|-------------------|


                                                           
------------------|--0--0-----0--0--0--|------------------|
--4--4--4--4------|--5--5h-7--5--5--5/-|--4--4--4--4------|
--5--5--5--5------|--6--6-----6--6--6/-|--5--5--5--5------|
--6--6--6--6------|--7--7-----7--7--7/-|--6--6--6--6------|
------------------|--------------------|------------------|
------------------|--------------------|------------------|

[ Tab from: http://www.guitartabs.cc/tabs/a/amigo_vicente/reino_de_silia_tab.html ]
                                                                              
--0--0--0--0--0--0---|------------------|--------------------|---------------|
--5--5--5--5--5--5-7h|--5--4----4--4----|--7--5--7--5--7--5/-|----4----------|
--6--6--6--6--6--6---|-----5----5--5----|--6--6--6--6--6--6/-|----5----------|
--7--7--7--7--7--7---|-----6----6--6----|--7--7--7--7--7--7/-|----6----------|
---------------------|------------------|--------------------|---------------|
---------------------|------------------|--------------------|---------------|


                                                                   
----------4-----------|---------------------|---------------------|
--------4---7-5-5--4--|----9-8-10-8-9----8--|--8/-5--5/-4--4-5----|
------5---------------|---------------------|------------------6--|
----6-----------------|---------------------|---------------------|
----------------------|---------------------|---------------------|
----------------------|---------------------|---------------------|


                                                                 
----------------|---------0---------0--|---------0--------0-----|
-----------0----|-------0------0-------|-------0------------0---|
------6----6----|-----3--------4-------|-----3--------3-------3-|
-----------6----|--6--------4--2-------|--4--------6------------|
-----------4----|--------------2-------|------------------------|
----------------|--------------0-------|------------------------|


                                                                      
----0-------0-----------|--------0-------0--|---------0---0----------|
------0-------0---------|-----0-------------|-------0----------------|
--------3-------3-------|--3--------3-------|-----1----------------6-|
--4-------2----------4--|-------------------|--2-----------------6---|
------------------6-----|-------------------|------------------------|
------------------------|-------------------|-----------6---4--------|


                                                                     
----4-------------------|--------------------------|----------------|
--5---7-5-4-------2h0---|--0-----------------------|-----------4----|
------------6-4-------3-|----3-1-0-4-3-1-0-4-1-0---|-----------3----|
------------------------|------------------------2-|--1--------1----|
------------------------|--------------------------|-----------1----|
--------------0---------|--------------------------|-----------3----|


                                                                         
---------0---------0--|---------0--------0-----|----0-------0-----------|
-------0------0-------|-------0------------0---|------0-------0---------|
-----3--------4-------|-----3--------3-------3-|--------3-------3-------|
--6--------4--2-------|--4--------6------------|--4-------2----------4--|
--------------2-------|------------------------|------------------6-----|
--------------0-------|------------------------|------------------------|


                                                                      
--------0-------0--|---------------------------|---------------------|
-----0-------------|----------0----------------|---------------------|
--3--------3-------|--------6---6--------------|--9/8-8-8/6-6-6------|
-------------------|------8-------8-8/11h9-9-9-|---------------------|
-------------------|----7----------------------|---------------------|
-------------------|--0------------------------|---------------------|


                                                                              
-----------------|--------------|------------------------|----------0--------|
----0------5--4--|--------------|--4-4-4-4-4-4-4-4-2--2--|--0-------0--2--2--|
----1------4--3--|--------------|--3-3-3-3-3-3-3-3-3--3--|-----3----3--3--3--|
----2------2--1--|--------------|--1-1-1-1-1-1-1-1-1--1--|-----1----1--1--1--|
----2------2--1--|--------------|--1-1-1-1-1-1-1-1-1--1--|-----1----1--1--1--|
----0------4--3--|--------------|------------------------|-------------------|


                                                                    
---------------------|-----0--0--------0--|--0-0-0-0-0-0-0-0-0-----|
--0-----0--2--4--4h2-|--0--0--0--------0--|--2-2-2-2-2-2-2-2-2--0--|
-----3---------------|-----1--1--3h1---1--|--1-1-1-1-1-1-1-1-1--1--|
-----1---------------|-----2--2--------2--|--2-2-2-2-2-2-2-2-2--2--|
-----1---------------|-----2--2-----------|--2-2-2-2-2-2-2-2-2--2--|
---------------------|-----0--0-----------|------------------------|


                                                             
-----0-------------|-----0-------------|--------------------|
-----0----2--2--0--|-----0----2h-0--0--|-----4h-0--4--4--4--|
--3--1----1--1--1--|--3--1----1-----3--|-----3-----3--3--3--|
-----2----2--2--2--|-----2----2-----2--|-----1-----1--1--1--|
-----2----2--2--2--|-----2----2-----2--|-----1-----1--1--1--|
-------------------|-------------------|--3-----------------|


                                                                   
------------------------|----------0--------|---------------------|
--4-4-4-4-4-4-4-4-2--2--|--0-------0--2--2--|--0-----0--2--4--4h2-|
--3-3-3-3-3-3-3-3-3--3--|-----3----3--3--3--|-----3---------------|
--1-1-1-1-1-1-1-1-1--1--|-----1----1--1--1--|-----1---------------|
--1-1-1-1-1-1-1-1-1--1--|-----1----1--1--1--|-----1---------------|
------------------------|-------------------|---------------------|


                                                                  
-----0--0--------0--|--0-0-0-0-0-0-0-0-------|-----0-------------|
--0--0--0--------0--|--2-2-2-2-2-2-2-2-0--0--|-----0----2--2--0--|
-----1--1--3h1---1--|--1-1-1-1-1-1-1-1-1--1--|--3--1----1--1--1h-|
-----2--2--------2--|--2-2-2-2-2-2-2-2-2--2--|-----2----2--2--2--|
-----2--2-----------|--2-2-2-2-2-2-2-2-2--2--|-----2----2--2--2--|
-----0--0-----------|------------------------|-------------------|


                                                               
-----0--------------|------------------|---------0----0----0--|
-----0-----4--4--4--|----4----4--4--4--|-------0------0-------|
--3--1h-3--3--3--3--|----3----3--3--3--|-----1--------1-------|
-----2-----1--1--1--|----1----1--1--1--|--2--------4----------|
-----2-----1--1--1--|----1----1--1--1--|----------------------|
-----------3--3--3--|----3----3--3--3--|----------------------|


                                                                    
---------0----0----0-----|----0----------------|----------------0--|
-------4-------------4---|---------------------|----4--4--4--4-----|
--6--6-----------------0-|------------1h0------|----3--3--3--3-----|
-----------8-----5-------|--6-------------2h1--|----1--1--1--1-----|
-------------------------|---------------------|----1--1--1--1-----|
-------------------------|------0--------------|----3--3--3--3-----|


                                                                    
--7-11-9-7--------0-------|------------------|---------------------|
-----------11-9-7---4-----|-----4------------|--------------4------|
-----------------------4--|--------4--6------|--4-----3--------3/6h|
--------------------------|--4---------------|-----2-----1---------|
--------------------------|------------------|---------------------|
--------------------4-----|-----------6------|--4-----3------------|


                                                                      
----------------4--|--------4---0-------------|----------------------|
-------------------|------4---7---4-2-0h2h0---|--0-------------------|
--4--4-------------|----4-------------------3-|----3-1-0-3-0-1----0--|
--------8--6-------|--6-----------------------|----------------------|
-------------------|--------------------------|----------------------|
-------------------|--------------------------|----------------------|


                                                                     
----------------------|---------------0--|--7-11-9-7--------0-------|
--------0-------------|----------4-------|-----------11-9-7---4-----|
--1--3-----3-1-0-1-2--|----------3-------|-----------------------4--|
----------------------|-------4----------|--------------------------|
----------------------|------------------|--------------------------|
----------------------|----3-------------|--------------------4-----|


                                                             
------------------|---------------------|----------------4--|
-----4------------|--------------4------|-------------------|
--------4--6------|--4-----3--------3/6h|--4--4-------------|
--4---------------|-----2-----1---------|--------8--6-------|
------------------|---------------------|-------------------|
-----------6------|--4-----3------------|-------------------|


                                                                  
--------4--------------|--------------------|--4--2--------------|
------4---7-5-5h-7--5h-|--4-----------------|--2-----5--4--2-----|
----4------------------|-----6--4--3-----3--|--------------------|
--6--------------------|--------------------|--------------------|
-----------------------|--------------------|--------------------|
-----------------------|--------------2-----|-----------------2--|


                                                                               
-----2----2----0-0--|----------------------------|----------------------------|
-----4----4----0-0--|--------------4--5h---4-----|--4h-9--7--5h-4--5h---4-----|
-----3----3---------|--------4/-6-------------6--|-------------------------6--|
-----4----4---------|-----2----------------------|----------------------------|
--2-----------------|--0-------------------------|----------------------------|
--------------------|----------------------------|----------------------------|


                                                                              
-----------------------------|-------------0-0--|-----------------------0-0--|
-----------------------------|--4----------0-0--|-----------------------0-0--|
--4h-8--6-----6h-4-----------|--4---------------|----------------------------|
-----------7--------7h-6h-4--|--6---------------|--------9--8h-9--11---------|
-----------------------------|--7---------------|-----7----------------------|
-----------------------------|------------------|--0-------------------------|


                                                          
----------------------0-0--|--------------------0--------|
----------------------0-0--|-----------------------------|
--------------3--4---------|-----------------3-----0-----|
--------4h-6---------------|--------2--4h-6-----------2--|
-----4---------------------|-----2-----------------------|
--2------------------------|--0--------------------------|


                                                           
--------------------0--------|----------------------------|
-----------------------------|----------------------------|
-----------------------------|--0h-3----------------0h-3--|
--1h-4--2--1h-2--------1h-2--|--------4--2--1-------------|
-----------------4-----------|-----------------4----------|
-----------------------------|----------------------------|


                                                                            
--------------------0--------|-----------------------------|---------------|
-----------------------------|-----------------------------|----------4----|
--0h-3-----------------------|-----------------------0-----|----------3----|
--------4--2--1--------1-----|--1--------------2--6-----1--|----------1----|
-----------------4--------2--|--------2-----2--------------|----------1----|
-----------------------------|-----4-----0-----------------|----------3----|


                                                                       
--------------|-----------------|-------------------|-----------------|
--------------|----------7-7--6-|--7--7----5--5--4--|--4-4-4----------|
--------------|----------6-6--5-|--6--6----4--4--3--|--3-3-3----------|
--------------|----------4-4--3-|--4--4----2--2--1--|--1-1-1----------|
--------------|----------4-4--3-|--4--4----2--2--1--|--1-1-1----------|
--------------|----------6-6--5-|--6--6----4--4--3--|--3-3-3----------|


                                                                                
------------------||--------------------|----0--0-----------|------------------|
------------------||--------------------|-------5-----------|------------------|
------------------||*--4----------------|-------4-----------|------------------|
------8h-4--6-----||*-----8--4--6-------|-------8h-4--6-----|------------------|
---------------4--||-----------------4--|----------------4--|--7/-10----6------|
------------------||--------------------|-------------------|------------------|


                                                                               
--0------------0--|----0--------------|-------------------|----0--0-----------|
------------------|----5--------------|-------------------|-------5-----------|
------------------|----4--------------|--4----------------|-------4-----------|
------------------|----6--8h-4--6-----|-----8--4--6-------|-------8h-4--6-----|
-----7------------|----------------4--|----------------4--|----------------4--|
----------2-------|-------------------|-------------------|-------------------|


                                                            
----------------0--|----0--------------|----0--0-----------|
-------------------|----5--------------|-------5-----------|
-------------------|----4--------------|-------4-----------|
-------------------|----6--8h-4--6-----|-------8h-4--6-----|
--7/-10----6-------|----------------4--|----------------4--|
-------------------|-------------------|-------------------|


                                                                               
-----------------0--|--------------0--|----0--------------|-------------------|
--------------------|-----------------|----5--------------|-------------------|
--4-----------------|-----------------|----4--------------|--4----------------|
-----8--4--6--------|-----------------|----6--8h-4--6-----|-----8--4--6-------|
--------------4-----|-----------------|----------------4--|----------------4--|
--------------------|----0----2-------|-------------------|-------------------|


                                       3x
----0--0-----------|-------------------||
-------5-----------|-------------------||
-------4-----------|------------------*||
-------8h-4--6-----|------------------*||
----------------4--|--7/-10----6-------||
-------------------|-------------------||


Comments