American Hi-fi - Wall Of Sound Chords & Tabs

 

Wall Of Sound Chords & Tabs

American Hi-fi Chords & Tabs

Version: 1 Type: Tab 0 ratings
1 star 2 stars 3 stars 4 stars 5 stars
comments

Wall Of Sound Tab

   
---------------------------------------------------------------------------
			     AMERICAN HI-FI - Wall Of Sound
---------------------------------------------------------------------------


Tabbed by:Audio84ave
Email:Y.Kumar@web.de

Tuning: Standard

The song is actually in flat, but i transcribed it into standard tuning.

2 Guitars


Intro:
Guitar1:
e|---------2------------2-----------2------------------|
B|-----------------------------------------------------|
G|-----4------4------4-----4-----4-----4---------------|
D|---------------------------------------------7-----7-|
A|-4--------------3-----------2---------------7-----7--|
E|-----------------------------------------5-----4-----|

Guitar2:
e|-----------------------------------------------------|
B|-----------------------------------------------------|
G|-6--------------6-----------4------------------------|
D|-6--------------6-----------4-----------7-----7------|
A|-4--------------3-----------2-----------7-----7------|
E|----------------------------------------5-----4------|


Verse:
e|---------2------------2-----------2------------------|
B|-----------------------------------------------------|
G|-----4------4------4-----4-----4-----4---------------|
D|---------------------------------------------7-----7-|
A|-4--------------3-----------2---------------7-----7--|
E|-----------------------------------------5-----4-----|


Bridge:
Both Guitars
e|-----------------------|	
B|-----------------------|	
G|-2-----------6---------|	always play
D|-4-----------7---------|	three times
A|-4-----------7---------|
E|-2-----------5---------|


(Intro)
(Verse)


Chorus:
Guitar1
e|(0)---------------------------------------------------------------------|
B|(0)---------------------------------------------------------------------|
G|(1)---------6-------------------------2---/6----------------------------|
D|-2----------6------------7------------4---/7----------------------------|
A|-2----------4------------7------------4---/7----------------------------|
E|-0----------4------------5------------2---/5----------------------------| 


Guitar2
e|------------0-------------------------2---/5----------------------------|
B|------------5-------------------------2---/5----------------------------|
G|-9----------6-----------/14-\13\9-----2---/6----------------------------|
D|-9----------6---------------------11--4---/7----------------------------|
A|-7----------4-------------------------4---/7----------------------------|
E|--------------------------------------2---/5----------------------------|

[ Tab from: http://www.guitartabs.cc/tabs/a/american_hi_fi/wall_of_sound_tab.html ]
Little Bridge:
e|------------------------------------------------|
B|------------------------------------------------|
G|-1--------2--------1--------5-55555555----------|
D|-2--------4--------2--------5-55555555----------|
A|-2--------4--------2--------3-33333333----------|
E|-0--------2--------0----------------------------|


Solo:
Guitar1
e|--------------------------------------|
B|--------------------------------------|
G|--6-------6-------4-------------------|
D|--6-------6-------4-----------7-----7-|
A|--4-------3-------2----------7-----7--|
E|---------------------------5----4-----|

Guitar2
e|---------------------------------------------------------------------------|
B|-----------------------------------12~-------------------------------------|
G|-------------------------9-11-11/13-------11b13-11b13-11b------------------|
D|-11~-----/14\11-10~--------------------------------------------------------|
A|---------------------------------------------------------------------------|
E|---------------------------------------------------------------------------|

e|---------------------------------------------------------------------------|
B|-----------------------------------12~------12-12b14ór12b------------------|
G|-------------------------9-11-11/13-------13---------------11b~------------|
D|-11~-----/14\11-10~--------------------------------------------------------|
A|---------------------------------------------------------------------------|
E|---------------------------------------------------------------------------|

e|-----------------------------------------------|
B|---12b14r12------------------------------------|
G|------------11-b-13--/14-\13-\6~----/9~----\6--|
D|-----------------------------------------------|
A|-----------------------------------------------|
E|-----------------------------------------------|


Outro Solo:
e|---------------------------------------------------------------------------|
B|---------------------------------------------------------------------------|
G|---9~-----/11-11-11-11\9-8-9~-------11-11-11-11----13--\9~r----------------|
D|---------------------------------------------------------------------------|
A|---------------------------------------------------------------------------|
E|---------------------------------------------------------------------------|

e|----------------------------|
B|----------------------------|
G|-----------13-11------------|	repeat over and over until fade-out...
D|---11-11-----------14---11--|
A|----------------------------|
E|----------------------------| 



Song Order:

Intro 2x
Verse 4x
Bridge
Intro 1x
Verse 4x
Chorus 2x
Little Bridge 1x
Solo
Bridge
Chorus 3x
Outro Solo


Thanx! Enjoy!
Mail me for critics or improvements. i think this tab is 90% correct...



===========================================================================
| /  slide up
| \  slide down
| h  hammer-on
| p  pull-off
| b  Bend
| r  release
| ~  vibrato
| r  let ring
| +  harmonic
| lr let ring
| pm palm-muted
| x  Mute note
===========================================================================
Comments