American Hi-fi - The Breakup Song Chords & Tabs

 

The Breakup Song Chords & Tabs

American Hi-fi Chords & Tabs

Version: 1 Type: Tab 0 ratings
1 star 2 stars 3 stars 4 stars 5 stars
comments

The Breakup Song Tab

   
Band - American Hi-Fi
Song - The Breakup Song
Album - The Art of Losing
Tuning - Drop D

Intro

e:-------------------------|
b:-------------------------|
g:-------------------------|   Repeat 4 times
d:-12/-3-3-5-5-1~~~~~~~----|
a:-12/-3-3-5-5-1~let ring--|
D:-12/-3-3-5-5-1~~~~~~~----|


Verse
e:---------------------------|
b:---------------------------|
g:---------------------------|
d:-8-8-/-3-3-/-5-5-/-1-1-1-1-|
a:-8-8-/-3-3-/-5-5-/-1-1-1-1-|
d:-8-8-/-3-3-/-3-3-/-1-1-1-1-|

Pre-Chorus

 "You can keep the dog we bought"
e:-----------------------------|
b:-----------------------------|
g:---------------5-------------| Repeat twice
d:-8------3------5------1------|
a:-8--x8--3--x8--3--x8--1--x8--|
D:-8------3-------------1------|

Chorus
[ Tab from: http://www.guitartabs.cc/tabs/a/american_hi_fi/the_breakup_song_tab.html ]
 "It's Over, Were Over"
e:-------------------------------------------|
b:-------------------------------------------|
g:-----------5-5-5-5-5-5-5-5-----------------| Repeat 4 times
d:-8-8-x-3-3-5-5-5-5-5-5-5-5-1-1-1-1-1-1-1-1-|
a:-8-8-x-3-3-3-3-3-3-3-3-3-3-1-1-1-1-1-1-1-1-|
D:-8-8-x-3-3-----------------1-1-1-1-1-1-1-1-|

Solo

e:--------------------------------------------------------------|
b:---------------------------15-13-----------15-13--------------|
g:-10~10~10~10-8-7---5-7-5--------15-14-----------15-14-14-15^--|
d:-----------------8------8-------------17-15-------------------|
a:--------------------------------------------------------------|
D:--------------------------------------------------------------|

I think that's it.
Any suggestions Mail me
Doms_BeerCo@Hotmail.com
Comments