American Hi Fi - Surround Chords & Tabs

 

American Hi Fi Chords & Tabs

Version: 1 Type: Tab 0 ratings
1 star 2 stars 3 stars 4 stars 5 stars
comments

Surround Tab

Artist: American Hi-Fi 
Song: Surround 
Tabbed By: Aaron AKA Teto Levesque  

         I got soem request from people asking me to tab more tsongs by 
American Hi Fi because of my tab for Don't Wait For The Sun. So I tabbed 
out Surround. I did my best, but I can't guarentee this is 100% correct. 

p - pull off 
h - hammer on 
bbbb - bend slowly 
s - shake/bend the string quickly up and down 
/ - slide down  

Intro: 
e|----------------------------------------------------| 
b|----------------------------------------------------| 
g|-----6---6---6---------6---6---6--------6---6---6---| 
d|---6---6---6---6-----6---6---6---6----6---6---6---6-| 
a|-4----------------4-----------------4---------------| 
E|----------------------------------------------------| 

Then, when the drums and bass coms in: 
e|---------------------------------------------| 
b|---------------------------------------------| 
g|-6-6-6-6-------------------------------------| 
d|-6-6-6-6-----6-6-6-6-6----4-4-4-4----6-6-6-6-|Repeat 
a|-4-4-4-4-----6-6-6-6-6----4-4-4-4----6-6-6-6-| 
E|-------------4-4-4-4-4----2-2-2-2----4-4-4-4-| 

I haven't figured out the verse yet, sorry.  
[ Tab from: http://www.guitartabs.cc/tabs/a/american_hi_fi/surround_tab.html ]
Chorus: 
e|---------------------------------------------| 
b|---------------------------------------------| 
g|-6-6-6-6-------------------------------------| 
d|-6-6-6-6-----6-6-6-6-6----4-4-4-4----6-6-6-6-|Repeat 
a|-4-4-4-4-----6-6-6-6-6----4-4-4-4----6-6-6-6-| 
E|-------------4-4-4-4-4----2-2-2-2----4-4-4-4-| 
"turn it up again, we're gonin nowhere...." 

After 2nd Chorus: 
e|-------------------------------------------------------| 
b|-------------------------------------------------------| 
g|-------------------------------------------------------| 
d|-6-6-----------6-6-----------6-6-----------6-6---------| 
a|-6-6-----------6-6-----------6-6-----------6-6---------| 
E|-4-4-----------4-4-----------4-4-----------4-4---------| 
     Better way     Better way   Better way      Better way 

Solo played with lots of Wawa (somewhere along the line of this:) 
e|-------------------------------------------------| 
b|-------------------------------------------------| 
g|-8p6h8-8-(8)---8bbbb-6s---8p6h8-8-(8)----8bbbbb--| 
d|-------------9------------------------9----------| 
a|-------------------------------------------------| 
E|-------------------------------------------------| 

After the chorus, there is a bass solo and then this: 
e|---------------| 
b|-----------7---| 
g|----6-6-6--6---| 
d|-6--6-6-6--4---| 
a|-6--4-4-4------| 
E|-4-------------| 
Play this^ times and end the song with this 
e|---------------------| 
b|---------------------| 
g|-6-6\\\\\\\\\\\\\\\\0| 
d|-6-6\\\\\\\\\\\\\\\\0| 
a|-4-4\\\\\\\\\\\\\\\\0| 
E|---------------------| 
  Any Questions, comments, or if you want to make changes, e-mail me 
at Zer0Toleranze@hotmail.com. I hope I helped a few people. Peace Out!- 
Aaron

Comments