American Hi Fi - Im A Fool Chords & Tabs

 

Im A Fool Chords & Tabs

American Hi Fi Chords & Tabs

Version: 4 Type: Tab 0 ratings
1 star 2 stars 3 stars 4 stars 5 stars
comments

Im A Fool Tab

   
American Hi-Fi
"I'm a Fool"

tabbed by mike
corrections comments requests
ILiveBball247@excite.com

Intro and Pre-Verse
Guitar 1
E|-------------|-----------|
B|-------------|-----------|
G|-----4-2~~-4-|-----4-2~~-|
D|-2~~-4-2~~-4-|-2~~-4-2~~-|
A|-2~~-2-0~~-2-|-2~~-2-0~~-|
E|-0~~---------|-0~~-------|
        3x       last time

Guitar 2
E|-14-12-14p12-14-12-14-------14-12-14p12-14-12-14-16-|
B|----------------------14-12-------------------------|
G|----------------------------------------------------|
D|----------------------------------------------------|
A|----------------------------------------------------|
E|----------------------------------------------------|
			4x

Verse 1
E|--------------------------------|
B|--------------------------------|
G|-99-999-999-999-777-777---------|
D|-99-999-999-999-777-777-777-777-|
A|-77-777-666-666-555-555-777-777-|
E|------------------------555-555-|
[ Tab from: http://www.guitartabs.cc/tabs/a/american_hi_fi/im_a_fool_tab_ver_4.html ]
Pre-Chorus
Guitar 1
E|-------------------------------------------------|
B|-------------------------------------------------|
G|-------------------------------------------------|
D|-9999-11111111-77777777-9999-11111111-77777777---|
A|-9999-11111111-77777777-9999-11111111-77777777---|
E|-7777--9-9-9-9-55555555-7777--9-9-9-9-55555555---|
 pm------------------------------------  pm--------|

Guitar 2
E|---0-----|
B|-----0---|
G|-------1-|
D|---------|
A|-2-------|
E|(0)------|
     6x

Chorus
E|---------------------|
B|---------------------|
G|------4444-6666------|
D|-2222-4444-6666-7777-|
A|-2222-2222-4444-7777-|
E|-0000-----------5555-|

pre-verse

Verse 2
E|--------------------------------|
B|-99-999-999-999-777-777---------|
G|-99-999-999-999-777-777-666-666-|
D|-99-999-888-888-777-777-777-777-|
A|-77-777-666-666-555-555-777-777-|
E|------------------------555-555-|

chorus

sorry no solo

chorus again

End with this
Guitar 1
E|-------------|
B|-------------|
G|-666-444-222-|
D|-666-444-222-|
A|-444-222-000-|
E|-------------|

Guitar 2
E|------------------------|
B|-14-14-14-12-12-12------|
G|------------------9-9-9-|
D|------------------------|
A|------------------------|
E|------------------------|
Comments