American Hi-fi - Hearts On Parade Chords & Tabs

 

Hearts On Parade Chords & Tabs

American Hi-fi Chords & Tabs

Version: 1 Type: Tab 0 ratings
1 star 2 stars 3 stars 4 stars 5 stars
comments

Hearts On Parade Tab

American Hi-Fi : Hearts On Parade

Tabbed by: Jamstein
Tuning: Standard

I know many people are not happy with American Hi-Fi's new sound.  Personally, I love it 
as much as their old style.  Regardless of how you feel about their music, you can't 
but love this song.  I am not much of a tabber, and this tab is probably very very wrong
in many places.  I am making this tab because I want other people, more experienced than
to fix this and work with it until someone has it completely down for everyone else to
read and learn to play.   This entire album is virtually untabbed and it all must be
tabbed soon.

Intro Chords:

e|-------------------------------|  (Play Each Chord 8 times)
B|----------------------------2--|
G|---------1-----------------2---|
D|---------2-----------------2---|
A|---------2---------------------|
E|-------------------------------|

Guitar 2 (during Intro)
e|-----------------------------------------------------------------------------|
B|------7--7--7--7--7--5--5--5-------------------------------------------------|
G|--------------------------------------6--6--6--6--6--4--4--4-----------------|
D|-----------------------------------------------------------------------------|
A|-----------------------------------------------------------------------------|
E|-----------------------------------------------------------------------------|

Verse:
    I don't understand....
e|--------------------------------|  (Again,
B|--------------------------------|  Play Each Chord 8 times)
G|------9-------------------------|
D|------9-------7------9------4---|
A|------7-------7------9------4---|
E|---------------5------7------2--|

I keep on holdin on...
e|--------------------------------|  (Again,
B|--------------------------------|  Play Each Chord 8 times)
G|------9-------------------------|
D|------9-------6------9------4---|
A|------7-------6------9------4---|
E|---------------4------7------2--|
Pre-Chorus
[ Tab from: http://www.guitartabs.cc/tabs/a/american_hi_fi/hearts_on_parade_tab.html ]
Nobody Told Me...
e|-------------------------------               ------------------------------------------------|
B|-------------------------------    <- 8x  ----------------------------------------------------|
G|-----9------------------------               -------------------------------------------------|  <- 4x each
D|-----9------9-----4---------                -------7---------9--------------------------------|
A|-----7------9-----4----------               -------7---------9--------------------------------|
E|-------------7-----2-----------              -------5---------7-------------------------------|

Cuz You're In No Hurry...
e|-------------------------------               ------------------------------------------------|
B|-------------------------------    <- 8x  ----------------------------------------------------|
G|-----9------------------------               -------------------------------------------------|  <- 4x each
D|-----9------9-----4---------                -------7---------9--------------------------------|
A|-----7------9-----4----------               -------7---------9--------------------------------|
E|-------------7-----2-----------              -------5---------7-------------------------------|

Where Do We Go...          I don't wanna....
e|-------------------------------------------------|
B|-------------------------------------------------|
G|-------9----------11------------9------------11--|     8x each
D|-------9----------11------------9------------11--|
A|-------7----------9--------------7------------9--|
E|-------------------------------------------------|

Chorus:

Our Hearts Are On Parade       So You Can watch them Fade
e|--------------------          --------------------|
B|--------------------   4x  -----------------------|
G|-------9-----------          ---------------------|     8x each
D|-------9-------9--          --4-------7-------9---|
A|-------7-------9---         --4-------7-------9---|     (Let the B chord Ring)
E|----------------7---         --2-------5-------7--|

Ok, you can figure out the rest from what I've given you.  It's all just previous chunks 
stuff I've already given you.  Thank you for reading this tab, because if you are here 
now, you have taken your time to look up the tab for a really good song.

Also, if you are an excellent tabber, please work out the kinks of this tab and create a 
complete and perfect version for all to see.
However, you must give me credit as your inspiration for your own tab, or because I am 
first person on the internet to create a tab for this song.

-Jamstein
Comments