American Hi-fi - Geeks Get The Girls Chords & Tabs

 

Geeks Get The Girls Chords & Tabs

American Hi-fi Chords & Tabs

Version: 2 Type: Tab 0 ratings
1 star 2 stars 3 stars 4 stars 5 stars
comments

Geeks Get The Girls Tab

   
-------------------------------------------------------------------------------
			   Geeks Get the Girls - American Hi-Fi
-------------------------------------------------------------------------------
Tabbed by:Jon
Email:smarttpants4146@yahoo.com
i figured all the other ones didn't sound even close so here's what i came up with...
and this is my first tab so be nice
key

| /  slide up
| \  slide down
| h  hammer-on
| ~  vibrato
| x  Mute note

Tuning:DADGBe
Intro:
e|--------------------------------------------------------------------------|
B|--------------------------------------------------------------------------|
G|--------------------------------------------------------------------------|
D|-----------------------------------------------------------------------7\x|
A|-0--0--2h3--3----------3--5~--5--3--2--0--0--2h3--3----------3--5~--5--7\x|
D|---------------4h5--5-------------------------------4h5--5-------------7\x|

Verse:
e|---------------------------------------------------------|
B|---------------------------------------------------------|
G|---------------------------------------------------------|
D|-77--22--99--12(x8)--77777777--22222222--99999999--12(x8)|
A|-77--22--99--12(x8)--77777777--22222222--99999999--12(x8)|
D|-77--22--99--12(x8)--77777777--22222222--99999999--12(x8)|

Pre-chorus:
e|----------------------------------------|
B|----------------------------------------|
G|----------------------------------------|
D|-4--2--0------4--2--0--9999999-11-12(x8)|
A|-4--2--0------4--2--0--9999999-11-12(x8)|
D|-4--2--0------4--2--0--9999999-11-12(x8)|

Chorus
e|---------------------||    |-------------------------|
B|---------------------||    |-------------------------| 
G|---------------------||    |-------------------------|
D|-7-77-777--22--0-0000||(x3)|-9999999-11--12-12--14-14|
A|-7-77-777--22--0-0000||    |-9999999-11--12-12--14-14|
D|-7-77-777--22--0-0000||    |-9999999-11--12-12--14-14|


e|------------------------------------|
B|------------------------------------|
G|------------------------------------|
D|---------------------------------7\x|
A|-0--0--2h3--3----------3--5~--5--7\x|
D|---------------4h5--5------------7\x|

Verse:
e|--------------------------------------------------|
B|--------------------------------------------------|
G|(p.m)--(p.m)--(p.m)--(p.m)--(p.m)--(p.m)----------|
D|-77--77--7--77--2--22--2--22--9--99--9--99--12(x8)|
A|-77--77--7--77--2--22--2--22--9--99--9--99--12(x8)|
D|-77--77--7--77--2--22--2--22--9--99--9--99--12(x8)|
[ Tab from: http://www.guitartabs.cc/tabs/a/american_hi_fi/geeks_get_the_girls_tab_ver_2.html ]
Pre-chorus:
e|-----------------------------------------|
B|-----------------------------------------|
G|-----------------------------------------|
D|--4--2--0------4--2--0--9999999-11-12(x8)|
A|--4--2--0------4--2--0--9999999-11-12(x8)|
D|--4--2--0------4--2--0--9999999-11-12(x8)|

Chorus
e|----------------------||    |--------------------------|
B|----------------------||    |--------------------------| 
G|----------------------||    |--------------------------|
D|--7-77-777--22--0-0000||(x3)|--9999999-11--12-12--14-14|
A|--7-77-777--22--0-0000||    |--9999999-11--12-12--14-14|
D|--7-77-777--22--0-0000||    |--9999999-11--12-12--14-14|

solo:(background)                      (solo comes in)
e|-------------------------------------|-----------------------------------|
B|-------------------------------------|-----------------------------------|
G|-------------------------------------|-----------------------------------|
D|-------------------------------------|----------------------------------7|
A|-0--0--2h3--3----------3--5~--5--3--2|--0--0--2h3--3----------3--5~--5--7|
D|---------------4h5--5----------------|---------------4h5--5-------------7|

Solo:played with above
e|-----------------------------------|
B|-----------------------------------|
G|-/141414--12-12121212--10/111111--9|
D|-/x-x-x---x--x-x-x-x---x-/x-x-x---x|
A|-/121212--10-10101010--8-/9-9-9---7|
D|-----------------------------------|

Verse 2:
e|----------------------|
B|----------------------|
G|----------------------|
D|-777--222--999--12(x7)|
A|-777--222--999--12(x7)|
D|-777--222--999--12(x7)|

Pre-Chorus:
e|--------||
B|--------||
G|--------||
D|-4--2--0||(x2)
A|-4--2--0||
D|-4--2--0||

e|--------------------||    |-------------------------------|
B|--------------------||    |-------------------------------|
G|--------------------||    |-------------------------------|
D|-7-77-777--22--0-000||(x3)|-9999999-1111-12121212-14141414|
A|-7-77-777--22--0-000||    |-9999999-1111-12121212-14141414|
D|-7-77-777--22--0-000||    |-9999999-1111-12121212-14141414|

e|--------------------||    |-------------------------------|
B|--------------------||    |-------------------------------|
G|--------------------||    |-------------------------------|
D|-7-77-777--22--0-000||(x3)|-9999999-1111-12121212-14141414|
A|-7-77-777--22--0-000||    |-9999999-1111-12121212-14141414|
D|-7-77-777--22--0-000||    |-9999999-1111-12121212-14141414|

e|----------------------------------------------|
B|----------------------------------------------|
G|----------------------------------------------|
D|-7-77-777--4-44-444--9999999-11-1212-1414--7\x|
A|-7-77-777--4-44-444--9999999-11-1212-1414--7\x|
D|-7-77-777--4-44-444--9999999-11-1212-1414--7\x|
Comments